  0
SECTION
  2
HEADER
  9
$ACADVER
  1
AC1014
  9
$ACADMAINTVER
 70
     9
  9
$DWGCODEPAGE
  3
ANSI_1252
  9
$INSBASE
 10
0.0
 20
0.0
 30
0.0
  9
$EXTMIN
 10
0.0108556394155812
 20
0.0002994960376341
 30
0.0
  9
$EXTMAX
 10
10.98182483674815
 20
13.69211994681969
 30
0.0
  9
$LIMMIN
 10
0.0
 20
0.0
  9
$LIMMAX
 10
12.0
 20
9.0
  9
$ORTHOMODE
 70
     1
  9
$REGENMODE
 70
     1
  9
$FILLMODE
 70
     1
  9
$QTEXTMODE
 70
     0
  9
$MIRRTEXT
 70
     0
  9
$DRAGMODE
 70
     2
  9
$LTSCALE
 40
1.5
  9
$OSMODE
 70
     0
  9
$ATTMODE
 70
     1
  9
$TEXTSIZE
 40
0.75
  9
$TRACEWID
 40
0.05
  9
$TEXTSTYLE
  7
STANDARD
  9
$CLAYER
  8
USP
  9
$CELTYPE
  6
BYLAYER
  9
$CECOLOR
 62
   256
  9
$CELTSCALE
 40
1.0
  9
$DELOBJ
 70
     1
  9
$DISPSILH
 70
     1
  9
$DIMSCALE
 40
5.0
  9
$DIMASZ
 40
0.125
  9
$DIMEXO
 40
0.0625
  9
$DIMDLI
 40
0.37890625
  9
$DIMRND
 40
0.0
  9
$DIMDLE
 40
0.0
  9
$DIMEXE
 40
0.09375
  9
$DIMTP
 40
0.0
  9
$DIMTM
 40
0.0
  9
$DIMTXT
 40
0.109375
  9
$DIMCEN
 40
0.0
  9
$DIMTSZ
 40
0.0
  9
$DIMTOL
 70
     0
  9
$DIMLIM
 70
     0
  9
$DIMTIH
 70
     1
  9
$DIMTOH
 70
     1
  9
$DIMSE1
 70
     0
  9
$DIMSE2
 70
     0
  9
$DIMTAD
 70
     0
  9
$DIMZIN
 70
     8
  9
$DIMBLK
  1

  9
$DIMASO
 70
     1
  9
$DIMSHO
 70
     1
  9
$DIMPOST
  1

  9
$DIMAPOST
  1

  9
$DIMALT
 70
     0
  9
$DIMALTD
 70
     2
  9
$DIMALTF
 40
25.4
  9
$DIMLFAC
 40
1.0
  9
$DIMTOFL
 70
     0
  9
$DIMTVP
 40
0.0
  9
$DIMTIX
 70
     0
  9
$DIMSOXD
 70
     0
  9
$DIMSAH
 70
     0
  9
$DIMBLK1
  1

  9
$DIMBLK2
  1

  9
$DIMSTYLE
  2
STANDARD
  9
$DIMCLRD
 70
     0
  9
$DIMCLRE
 70
     0
  9
$DIMCLRT
 70
   256
  9
$DIMTFAC
 40
1.0
  9
$DIMGAP
 40
0.08984375
  9
$DIMJUST
 70
     0
  9
$DIMSD1
 70
     0
  9
$DIMSD2
 70
     0
  9
$DIMTOLJ
 70
     1
  9
$DIMTZIN
 70
     0
  9
$DIMALTZ
 70
     0
  9
$DIMALTTZ
 70
     0
  9
$DIMFIT
 70
     3
  9
$DIMUPT
 70
     1
  9
$DIMUNIT
 70
     7
  9
$DIMDEC
 70
     4
  9
$DIMTDEC
 70
     4
  9
$DIMALTU
 70
     2
  9
$DIMALTTD
 70
     2
  9
$DIMTXSTY
  7
STANDARD
  9
$DIMAUNIT
 70
     0
  9
$LUNITS
 70
     5
  9
$LUPREC
 70
     6
  9
$SKETCHINC
 40
0.1
  9
$FILLETRAD
 40
0.0
  9
$AUNITS
 70
     0
  9
$AUPREC
 70
     1
  9
$MENU
  1
CUSTOM
  9
$ELEVATION
 40
0.0
  9
$PELEVATION
 40
0.0
  9
$THICKNESS
 40
0.0
  9
$LIMCHECK
 70
     0
  9
$BLIPMODE
 70
     0
  9
$CHAMFERA
 40
0.0
  9
$CHAMFERB
 40
0.0
  9
$CHAMFERC
 40
0.0
  9
$CHAMFERD
 40
0.0
  9
$SKPOLY
 70
     0
  9
$TDCREATE
 40
2451263.663231366
  9
$TDUPDATE
 40
2452768.661417280
  9
$TDINDWG
 40
0.5758875347
  9
$TDUSRTIMER
 40
0.5758875347
  9
$USRTIMER
 70
     1
  9
$ANGBASE
 50
0.0
  9
$ANGDIR
 70
     0
  9
$PDMODE
 70
     0
  9
$PDSIZE
 40
0.0
  9
$PLINEWID
 40
0.0
  9
$COORDS
 70
     2
  9
$SPLFRAME
 70
     0
  9
$SPLINETYPE
 70
     6
  9
$SPLINESEGS
 70
     8
  9
$ATTDIA
 70
     0
  9
$ATTREQ
 70
     0
  9
$HANDLING
 70
     1
  9
$HANDSEED
  5
107
  9
$SURFTAB1
 70
     6
  9
$SURFTAB2
 70
     6
  9
$SURFTYPE
 70
     6
  9
$SURFU
 70
     6
  9
$SURFV
 70
     6
  9
$UCSNAME
  2

  9
$UCSORG
 10
0.0
 20
0.0
 30
0.0
  9
$UCSXDIR
 10
1.0
 20
0.0
 30
0.0
  9
$UCSYDIR
 10
0.0
 20
1.0
 30
0.0
  9
$PUCSNAME
  2

  9
$PUCSORG
 10
0.0
 20
0.0
 30
0.0
  9
$PUCSXDIR
 10
1.0
 20
0.0
 30
0.0
  9
$PUCSYDIR
 10
0.0
 20
1.0
 30
0.0
  9
$USERI1
 70
     0
  9
$USERI2
 70
     0
  9
$USERI3
 70
     0
  9
$USERI4
 70
     0
  9
$USERI5
 70
     0
  9
$USERR1
 40
0.0
  9
$USERR2
 40
0.0
  9
$USERR3
 40
0.0
  9
$USERR4
 40
0.0
  9
$USERR5
 40
0.0
  9
$WORLDVIEW
 70
     1
  9
$SHADEDGE
 70
     3
  9
$SHADEDIF
 70
    70
  9
$TILEMODE
 70
     1
  9
$MAXACTVP
 70
    16
  9
$PINSBASE
 10
0.0
 20
0.0
 30
0.0
  9
$PLIMCHECK
 70
     0
  9
$PEXTMIN
 10
1.049999952316284
 20
0.7999999523162842
 30
0.0
  9
$PEXTMAX
 10
9.449999570846555
 20
7.199999570846556
 30
0.0
  9
$PLIMMIN
 10
0.0
 20
0.0
  9
$PLIMMAX
 10
12.0
 20
9.0
  9
$UNITMODE
 70
     0
  9
$VISRETAIN
 70
     0
  9
$PLINEGEN
 70
     0
  9
$PSLTSCALE
 70
     0
  9
$TREEDEPTH
 70
  3020
  9
$PICKSTYLE
 70
     0
  9
$CMLSTYLE
  2
STANDARD
  9
$CMLJUST
 70
     0
  9
$CMLSCALE
 40
1.0
  9
$PROXYGRAPHICS
 70
     1
  9
$MEASUREMENT
 70
     0
  0
ENDSEC
  0
SECTION
  2
CLASSES
  0
CLASS
  1
ACDBDICTIONARYWDFLT
  2
AcDbDictionaryWithDefault
  3
AutoCAD 2000
 90
        0
280
     0
281
     0
  0
CLASS
  1
ACDBPLACEHOLDER
  2
AcDbPlaceHolder
  3
AutoCAD 2000
 90
        0
280
     0
281
     0
  0
CLASS
  1
LAYOUT
  2
AcDbLayout
  3
AutoCAD 2000
 90
        0
280
     0
281
     0
  0
CLASS
  1
DICTIONARYVAR
  2
AcDbDictionaryVar
  3
"AutoCAD"
 90
        0
280
     0
281
     0
  0
CLASS
  1
LONG_TRANSACTION
  2
AcDbLongTransaction
  3
AutoCAD 2000
 90
        0
280
     0
281
     0
  0
CLASS
  1
LWPOLYLINE
  2
AcDbPolyline
  3
"AutoCAD"
 90
        0
280
     0
281
     1
  0
CLASS
  1
HATCH
  2
AcDbHatch
  3
"ACAD_SEDONA"
 90
        0
280
     0
281
     1
  0
CLASS
  1
XRECORD
  2
AcDbXrecord
  3
"<Built In>"
 90
        0
280
     0
281
     0
  0
CLASS
  1
LONG_TRANSACTION
  2
AcDbLongTransaction
  3
AutoCAD 2000
 90
        0
280
     0
281
     0
  0
CLASS
  1
LWPOLYLINE
  2
AcDbPolyline
  3
"AutoCAD"
 90
        0
280
     0
281
     1
  0
CLASS
  1
HATCH
  2
AcDbHatch
  3
"ACAD_SEDONA"
 90
        0
280
     0
281
     1
  0
CLASS
  1
XRECORD
  2
AcDbXrecord
  3
"<Built In>"
 90
        0
280
     0
281
     0
  0
ENDSEC
  0
SECTION
  2
TABLES
  0
TABLE
  2
VPORT
  5
F7
100
AcDbSymbolTable
 70
     1
  0
VPORT
  5
F8
100
AcDbSymbolTableRecord
100
AcDbViewportTableRecord
  2
*ACTIVE
 70
     0
 10
0.0
 20
0.0
 11
1.0
 21
1.0
 12
-17.59957072892627
 22
17.6379457132712
 13
0.0
 23
0.0
 14
1.0
 24
1.0
 15
0.0
 25
0.0
 16
0.0
 26
0.0
 36
1.0
 17
23.09603071721725
 27
-10.27010416511325
 37
-10.44050274849355
 40
14.81792203406211
 41
1.457627118644067
 42
50.0
 43
10.55307667737539
 44
10.55307667737539
 50
0.0
 51
0.0
 71
     0
 72
   100
 73
     1
 74
     1
 75
     0
 76
     0
 77
     0
 78
     0
  0
ENDTAB
  0
TABLE
  2
LTYPE
  5
F2
100
AcDbSymbolTable
 70
     1
  0
LTYPE
  5
F3
100
AcDbSymbolTableRecord
100
AcDbLinetypeTableRecord
  2
BYBLOCK
 70
     0
  3

 72
    65
 73
     0
 40
0.0
  0
LTYPE
  5
F4
100
AcDbSymbolTableRecord
100
AcDbLinetypeTableRecord
  2
BYLAYER
 70
     0
  3

 72
    65
 73
     0
 40
0.0
  0
LTYPE
  5
5
100
AcDbSymbolTableRecord
100
AcDbLinetypeTableRecord
  2
CONTINUOUS
 70
     0
  3
Solid line
 72
    65
 73
     0
 40
0.0
  0
ENDTAB
  0
TABLE
  2
LAYER
  5
F0
100
AcDbSymbolTable
 70
     4
  0
LAYER
  5
3E
100
AcDbSymbolTableRecord
100
AcDbLayerTableRecord
  2
0
 70
     0
 62
     7
  6
CONTINUOUS
  0
LAYER
  5
8
102
{ACAD_XDICTIONARY
360
9
102
}
100
AcDbSymbolTableRecord
100
AcDbLayerTableRecord
  2
USP-GEO
 70
     0
 62
     7
  6
CONTINUOUS
  0
LAYER
  5
E
102
{ACAD_XDICTIONARY
360
F
102
}
100
AcDbSymbolTableRecord
100
AcDbLayerTableRecord
  2
USP-TXT
 70
     0
 62
     7
  6
CONTINUOUS
  0
LAYER
  5
4
100
AcDbSymbolTableRecord
100
AcDbLayerTableRecord
  2
USP
 70
     0
 62
     7
  6
CONTINUOUS
  0
ENDTAB
  0
TABLE
  2
STYLE
  5
F1
100
AcDbSymbolTable
 70
     1
  0
STYLE
  5
11
100
AcDbSymbolTableRecord
100
AcDbTextStyleTableRecord
  2
STANDARD
 70
     0
 40
0.0
 41
1.0
 50
0.0
 71
     0
 42
0.75
  3
txt
  4

  0
ENDTAB
  0
TABLE
  2
VIEW
  5
F5
100
AcDbSymbolTable
 70
     0
  0
ENDTAB
  0
TABLE
  2
UCS
  5
F6
100
AcDbSymbolTable
 70
     0
  0
ENDTAB
  0
TABLE
  2
APPID
  5
F9
100
AcDbSymbolTable
 70
     1
  0
APPID
  5
FA
100
AcDbSymbolTableRecord
100
AcDbRegAppTableRecord
  2
ACAD
 70
     0
  0
ENDTAB
  0
TABLE
  2
DIMSTYLE
  5
FB
100
AcDbSymbolTable
 70
     1
  0
DIMSTYLE
105
103
100
AcDbSymbolTableRecord
100
AcDbDimStyleTableRecord
  2
STANDARD
 70
     0
  3

  4

  5

  6

  7

 40
1.0
 41
0.18
 42
0.0625
 43
0.38
 44
0.18
 45
0.0
 46
0.0
 47
0.0
 48
0.0
140
0.18
141
0.09
142
0.0
143
25.4
144
1.0
145
0.0
146
1.0
147
0.09
 71
     0
 72
     0
 73
     1
 74
     1
 75
     0
 76
     0
 77
     0
 78
     0
170
     0
171
     2
172
     0
173
     0
174
     0
175
     0
176
     0
177
     0
178
     0
270
     2
271
     4
272
     4
273
     2
274
     2
340
11
275
     0
280
     0
281
     0
282
     0
283
     1
284
     0
285
     0
286
     0
287
     3
288
     0
  0
ENDTAB
  0
TABLE
  2
BLOCK_RECORD
  5
1
100
AcDbSymbolTable
 70
     3
  0
BLOCK_RECORD
  5
2
102
{ACAD_XDICTIONARY
360
E7
102
}
100
AcDbSymbolTableRecord
100
AcDbBlockTableRecord
  2
*MODEL_SPACE
  0
BLOCK_RECORD
  5
EB
102
{ACAD_XDICTIONARY
360
EC
102
}
100
AcDbSymbolTableRecord
100
AcDbBlockTableRecord
  2
*PAPER_SPACE
  0
BLOCK_RECORD
  5
6
100
AcDbSymbolTableRecord
100
AcDbBlockTableRecord
  2
HUS177_T
  0
BLOCK_RECORD
  5
41
100
AcDbSymbolTableRecord
100
AcDbBlockTableRecord
  2
HUS177_F
  0
BLOCK_RECORD
  5
BC
100
AcDbSymbolTableRecord
100
AcDbBlockTableRecord
  2
HUS177_S
  0
ENDTAB
  0
ENDSEC
  0
SECTION
  2
BLOCKS
  0
BLOCK
  5
E9
100
AcDbEntity
  8
0
100
AcDbBlockBegin
  2
*MODEL_SPACE
 70
     0
 10
0.0
 20
0.0
 30
0.0
  3
*MODEL_SPACE
  1

  0
ENDBLK
  5
EA
100
AcDbEntity
  8
0
100
AcDbBlockEnd
  0
BLOCK
  5
EE
100
AcDbEntity
 67
     1
  8
0
100
AcDbBlockBegin
  2
*PAPER_SPACE
 70
     0
 10
0.0
 20
0.0
 30
0.0
  3
*PAPER_SPACE
  1

  0
ENDBLK
  5
EF
100
AcDbEntity
 67
     1
  8
0
100
AcDbBlockEnd
  0
BLOCK
  5
3D
100
AcDbEntity
  8
0
100
AcDbBlockBegin
  2
HUS177_T
 70
     0
 10
0.0
 20
0.0
 30
0.0
  3
HUS177_T
  1

  0
LWPOLYLINE
  5
7
100
AcDbEntity
  8
USP-GEO
100
AcDbPolyline
 90
        2
 70
   129
 43
0.0
 10
0.0
 20
3.388767967360173
 10
2.00800712184766
 20
3.388767967360173
  0
LWPOLYLINE
  5
B
100
AcDbEntity
  8
USP-GEO
100
AcDbPolyline
 90
        2
 70
   129
 43
0.0
 10
1.939753990581595
 20
3.320514836094107
 10
0.0
 20
3.320514836094107
  0
LWPOLYLINE
  5
C
100
AcDbEntity
  8
USP-GEO
100
AcDbPolyline
 90
        3
 70
   128
 43
0.0
 10
0.0
 20
3.388767967360173
 10
0.0
 20
3.320514836094107
 10
0.0
 20
3.388767967360173
  0
TEXT
  5
D
100
AcDbEntity
  8
USP-TXT
100
AcDbText
 10
1.196105447502906
 20
-0.8199900887129825
 30
0.0
 40
0.203125
  1
HUS177 - TOP VIEW
 72
     1
 11
2.88881378083624
 21
-0.8199900887129825
 31
0.0
100
AcDbText
  0
LWPOLYLINE
  5
12
100
AcDbEntity
  8
USP-GEO
100
AcDbPolyline
 90
        2
 70
   129
 43
0.0
 10
3.783953597390695
 20
3.388767967360173
 10
5.777627561672483
 20
3.388767967360173
  0
LWPOLYLINE
  5
13
100
AcDbEntity
  8
USP-GEO
100
AcDbPolyline
 90
       12
 70
   129
 43
0.0
 10
3.838556102403549
 20
2.090593410679598
 10
3.838556102403549
 20
2.172497168198878
 10
3.838556102403549
 20
2.240750299464943
 10
3.838556102403549
 20
2.254400925718156
 10
3.838556102403549
 20
3.320514836094107
 10
5.777627561672483
 20
3.320514836094107
 10
5.777627561672483
 20
3.388767967360173
 10
5.777627561672483
 20
3.320514836094107
 10
3.838556102403549
 20
3.320514836094107
 10
3.838556102403549
 20
2.254400925718156
 10
3.838556102403549
 20
2.240750299464943
 10
3.838556102403549
 20
2.172497168198878
  0
LWPOLYLINE
  5
14
100
AcDbEntity
  8
USP-GEO
100
AcDbPolyline
 90
       15
 70
   128
 43
0.0
 10
1.939753990581595
 20
3.320514836094107
 10
1.939753990581595
 20
2.254400925718156
 10
1.939753990581595
 20
2.240750299464943
 10
1.939753990581595
 20
2.172497168198878
 10
1.939753990581595
 20
2.090593410679598
 10
1.939753990581595
 20
1.913135269387828
 10
1.939753990581595
 20
1.817580885615335
 10
1.939753990581595
 20
1.803930259362122
 10
1.939753990581595
 20
1.74932775434927
 10
1.939753990581595
 20
1.584837707998049
 10
1.939753990581595
 20
1.311825182933786
 10
1.939753990581595
 20
0.040951878759639
 10
1.939753990581595
 20
0.013650626253213
 10
1.939753990581595
 20
0.0
 10
2.00800712184766
 20
0.0
  0
LWPOLYLINE
  5
15
100
AcDbEntity
  8
USP-GEO
100
AcDbPolyline
 90
       11
 70
   128
 43
0.0
 10
2.00800712184766
 20
0.0
 10
2.00800712184766
 20
0.013650626253213
 10
2.00800712184766
 20
0.040951878759639
 10
2.00800712184766
 20
1.311825182933786
 10
2.00800712184766
 20
1.584837707998049
 10
2.00800712184766
 20
1.74932775434927
 10
2.00800712184766
 20
1.803930259362122
 10
1.939753990581595
 20
1.803930259362122
 10
1.939753990581595
 20
1.74932775434927
 10
1.939753990581595
 20
1.584837707998049
 10
1.939753990581595
 20
1.311825182933786
  0
LWPOLYLINE
  5
16
100
AcDbEntity
  8
USP-GEO
100
AcDbPolyline
 90
        3
 70
   128
 43
0.0
 10
2.00800712184766
 20
1.311825182933786
 10
1.939753990581595
 20
1.311825182933786
 10
1.939753990581595
 20
0.040951878759639
  0
LWPOLYLINE
  5
17
100
AcDbEntity
  8
USP-GEO
100
AcDbPolyline
 90
       14
 70
   128
 43
0.0
 10
3.783953597390695
 20
0.0
 10
3.783953597390695
 20
0.013650626253213
 10
3.783953597390695
 20
0.040951878759639
 10
3.783953597390695
 20
1.311825182933786
 10
3.783953597390695
 20
1.584837707998049
 10
3.783953597390695
 20
1.74932775434927
 10
3.783953597390695
 20
1.803930259362122
 10
3.783953597390695
 20
1.817580885615335
 10
3.783953597390695
 20
1.913135269387828
 10
3.783953597390695
 20
2.090593410679598
 10
3.783953597390695
 20
2.172497168198878
 10
3.783953597390695
 20
2.240750299464943
 10
3.783953597390695
 20
2.254400925718156
 10
3.783953597390695
 20
3.388767967360173
  0
LWPOLYLINE
  5
18
100
AcDbEntity
  8
USP-GEO
100
AcDbPolyline
 90
       16
 70
   128
 43
0.0
 10
3.838556102403549
 20
0.040951878759639
 10
3.838556102403549
 20
1.311825182933786
 10
3.783953597390695
 20
1.311825182933786
 10
3.783953597390695
 20
0.040951878759639
 10
3.838556102403549
 20
0.040951878759639
 10
3.838556102403549
 20
0.013650626253213
 10
3.838556102403549
 20
0.0
 10
3.838556102403549
 20
0.013650626253213
 10
3.838556102403549
 20
0.040951878759639
 10
3.838556102403549
 20
1.311825182933786
 10
3.838556102403549
 20
1.584837707998049
 10
3.838556102403549
 20
1.74932775434927
 10
3.838556102403549
 20
1.803930259362122
 10
3.838556102403549
 20
1.817580885615335
 10
3.838556102403549
 20
1.913135269387828
 10
3.838556102403549
 20
2.090593410679598
  0
LWPOLYLINE
  5
19
100
AcDbEntity
  8
USP-GEO
100
AcDbPolyline
 90
       17
 70
   128
 43
0.0
 10
2.00800712184766
 20
0.0
 10
2.00800712184766
 20
0.013650626253213
 10
2.00800712184766
 20
0.040951878759639
 10
2.00800712184766
 20
1.311825182933786
 10
2.00800712184766
 20
1.584837707998049
 10
2.00800712184766
 20
1.74932775434927
 10
2.00800712184766
 20
1.803930259362122
 10
2.00800712184766
 20
1.817580885615335
 10
2.00800712184766
 20
1.803930259362122
 10
1.939753990581595
 20
1.803930259362122
 10
1.939753990581595
 20
1.817580885615335
 10
1.939753990581595
 20
1.913135269387828
 10
1.939753990581595
 20
2.090593410679598
 10
2.00800712184766
 20
2.090593410679598
 10
2.00800712184766
 20
1.913135269387828
 10
2.00800712184766
 20
1.817580885615335
 10
1.939753990581595
 20
1.817580885615335
  0
LWPOLYLINE
  5
1A
100
AcDbEntity
  8
USP-GEO
100
AcDbPolyline
 90
        2
 70
   129
 43
0.0
 10
3.264547268455933
 20
0.0
 10
2.513080293216548
 20
0.0
  0
LWPOLYLINE
  5
1B
100
AcDbEntity
  8
USP-GEO
100
AcDbPolyline
 90
        2
 70
   129
 43
0.0
 10
2.26736902065871
 20
0.0
 10
2.00800712184766
 20
0.0
  0
LWPOLYLINE
  5
1C
100
AcDbEntity
  8
USP-GEO
100
AcDbPolyline
 90
        3
 70
   128
 43
0.0
 10
1.939753990581595
 20
0.013650626253213
 10
1.939753990581595
 20
0.0
 10
2.00800712184766
 20
0.0
  0
LWPOLYLINE
  5
1D
100
AcDbEntity
  8
USP-GEO
100
AcDbPolyline
 90
        4
 70
   128
 43
0.0
 10
2.00800712184766
 20
0.040951878759639
 10
1.939753990581595
 20
0.040951878759639
 10
1.939753990581595
 20
0.013650626253213
 10
1.940436521894255
 20
0.013650626253213
  0
LWPOLYLINE
  5
1E
100
AcDbEntity
  8
USP-GEO
100
AcDbPolyline
 90
        2
 70
   128
 43
0.0
 10
2.00800712184766
 20
0.013650626253213
 10
2.00868965316032
 20
0.013650626253213
  0
LWPOLYLINE
  5
1F
100
AcDbEntity
  8
USP-GEO
100
AcDbPolyline
 90
        4
 70
   128
 43
0.0
 10
2.513080293216548
 20
0.0
 10
2.513080293216548
 20
0.054602505012852
 10
2.472128414456909
 20
0.0819037575192781
 10
2.431176535697268
 20
0.0955543837724928
  0
LWPOLYLINE
  5
20
100
AcDbEntity
  8
USP-GEO
100
AcDbPolyline
 90
        4
 70
   128
 43
0.0
 10
2.26736902065871
 20
0.0
 10
2.281019646911923
 20
0.054602505012852
 10
2.308320899418349
 20
0.0819037575192781
 10
2.362923404431203
 20
0.0955543837724928
  0
LWPOLYLINE
  5
21
100
AcDbEntity
  8
USP-GEO
100
AcDbPolyline
 90
        2
 70
   129
 43
0.0
 10
2.431176535697268
 20
0.0955543837724928
 10
2.362923404431203
 20
0.0955543837724928
  0
LWPOLYLINE
  5
22
100
AcDbEntity
  8
USP-GEO
100
AcDbPolyline
 90
        2
 70
   129
 43
0.0
 10
3.783953597390695
 20
0.0
 10
3.523909167266983
 20
0.0
  0
LWPOLYLINE
  5
23
100
AcDbEntity
  8
USP-GEO
100
AcDbPolyline
 90
        2
 70
   129
 43
0.0
 10
3.428354783494492
 20
0.0955543837724928
 10
3.360101652228426
 20
0.0955543837724928
  0
LWPOLYLINE
  5
24
100
AcDbEntity
  8
USP-GEO
100
AcDbPolyline
 90
        4
 70
   128
 43
0.0
 10
3.360101652228426
 20
0.0955543837724928
 10
3.319149773468787
 20
0.0819037575192781
 10
3.278197894709148
 20
0.054602505012852
 10
3.264547268455933
 20
0.0
  0
LWPOLYLINE
  5
25
100
AcDbEntity
  8
USP-GEO
100
AcDbPolyline
 90
        4
 70
   128
 43
0.0
 10
3.428354783494492
 20
0.0955543837724928
 10
3.469306662254131
 20
0.0819037575192781
 10
3.51025854101377
 20
0.054602505012852
 10
3.523909167266983
 20
0.0
  0
LWPOLYLINE
  5
26
100
AcDbEntity
  8
USP-GEO
100
AcDbPolyline
 90
        3
 70
   128
 43
0.0
 10
3.783953597390695
 20
0.0
 10
3.783953597390695
 20
0.013650626253213
 10
3.783953597390695
 20
0.040951878759639
  0
LWPOLYLINE
  5
27
100
AcDbEntity
  8
USP-GEO
100
AcDbPolyline
 90
        2
 70
   129
 43
0.0
 10
3.838556102403549
 20
0.0
 10
3.783953597390695
 20
0.0
  0
LWPOLYLINE
  5
28
100
AcDbEntity
  8
USP-GEO
100
AcDbPolyline
 90
        2
 70
   128
 43
0.0
 10
3.838556102403549
 20
0.013650626253213
 10
3.83923863371621
 20
0.013650626253213
  0
LWPOLYLINE
  5
29
100
AcDbEntity
  8
USP-GEO
100
AcDbPolyline
 90
        2
 70
   129
 43
0.0
 10
2.513080293216548
 20
3.005867900957543
 10
3.264547268455933
 20
3.005867900957543
  0
LWPOLYLINE
  5
2A
100
AcDbEntity
  8
USP-GEO
100
AcDbPolyline
 90
        4
 70
   128
 43
0.0
 10
2.362923404431203
 20
2.923964143438263
 10
2.308320899418349
 20
2.937614769691476
 10
2.281019646911923
 20
2.964916022197904
 10
2.26736902065871
 20
3.005867900957543
  0
LWPOLYLINE
  5
2B
100
AcDbEntity
  8
USP-GEO
100
AcDbPolyline
 90
        4
 70
   128
 43
0.0
 10
2.513080293216548
 20
3.005867900957543
 10
2.513080293216548
 20
2.964916022197904
 10
2.472128414456909
 20
2.937614769691476
 10
2.431176535697268
 20
2.923964143438263
  0
LWPOLYLINE
  5
2C
100
AcDbEntity
  8
USP-GEO
100
AcDbPolyline
 90
       10
 70
   128
 43
0.0
 10
1.939753990581595
 20
3.320514836094107
 10
1.939753990581595
 20
2.254400925718156
 10
2.00800712184766
 20
2.254400925718156
 10
2.00800712184766
 20
3.388767967360173
 10
2.00800712184766
 20
2.254400925718156
 10
2.00800712184766
 20
2.240750299464943
 10
2.00800712184766
 20
2.172497168198878
 10
2.00800712184766
 20
2.090593410679598
 10
2.00800712184766
 20
1.913135269387828
 10
2.00800712184766
 20
1.817580885615335
  0
LWPOLYLINE
  5
2D
100
AcDbEntity
  8
USP-GEO
100
AcDbPolyline
 90
        5
 70
   128
 43
0.0
 10
1.939753990581595
 20
2.473493477082229
 10
1.857850233062315
 20
2.377939093309736
 10
1.816898354302676
 20
2.22709967321173
 10
1.830548980555889
 20
2.158846541945665
 10
1.83123151186855
 20
2.158846541945665
  0
LWPOLYLINE
  5
2E
100
AcDbEntity
  8
USP-GEO
100
AcDbPolyline
 90
        8
 70
   128
 43
0.0
 10
1.939753990581595
 20
2.090593410679598
 10
1.939753990581595
 20
2.172497168198878
 10
1.939753990581595
 20
2.240750299464943
 10
1.939753990581595
 20
2.254400925718156
 10
2.00800712184766
 20
2.254400925718156
 10
2.00800712184766
 20
2.240750299464943
 10
2.00800712184766
 20
2.172497168198878
 10
2.00800712184766
 20
2.090593410679598
  0
LWPOLYLINE
  5
2F
100
AcDbEntity
  8
USP-GEO
100
AcDbPolyline
 90
        8
 70
   128
 43
0.0
 10
1.939753990581595
 20
1.981388400653893
 10
1.898802111821954
 20
2.022340279413533
 10
1.885151485568741
 20
2.035990905666746
 10
1.871500859315528
 20
2.063292158173172
 10
1.857850233062315
 20
2.090593410679598
 10
1.844199606809102
 20
2.117894663186024
 10
1.830548980555889
 20
2.145195915692452
 10
1.830548980555889
 20
2.158846541945665
  0
LWPOLYLINE
  5
30
100
AcDbEntity
  8
USP-GEO
100
AcDbPolyline
 90
        2
 70
   128
 43
0.0
 10
1.898802111821954
 20
2.022340279413533
 10
1.899484643134615
 20
2.022340279413533
  0
LWPOLYLINE
  5
31
100
AcDbEntity
  8
USP-GEO
100
AcDbPolyline
 90
        2
 70
   129
 43
0.0
 10
2.362923404431203
 20
2.923964143438263
 10
2.431176535697268
 20
2.923964143438263
  0
LWPOLYLINE
  5
32
100
AcDbEntity
  8
USP-GEO
100
AcDbPolyline
 90
        2
 70
   129
 43
0.0
 10
2.00800712184766
 20
3.005867900957543
 10
2.26736902065871
 20
3.005867900957543
  0
LWPOLYLINE
  5
33
100
AcDbEntity
  8
USP-GEO
100
AcDbPolyline
 90
        4
 70
   128
 43
0.0
 10
3.360101652228426
 20
2.923964143438263
 10
3.319149773468787
 20
2.937614769691476
 10
3.278197894709148
 20
2.964916022197904
 10
3.264547268455933
 20
3.005867900957543
  0
LWPOLYLINE
  5
34
100
AcDbEntity
  8
USP-GEO
100
AcDbPolyline
 90
        4
 70
   128
 43
0.0
 10
3.523909167266983
 20
3.005867900957543
 10
3.51025854101377
 20
2.964916022197904
 10
3.469306662254131
 20
2.937614769691476
 10
3.428354783494492
 20
2.923964143438263
  0
LWPOLYLINE
  5
35
100
AcDbEntity
  8
USP-GEO
100
AcDbPolyline
 90
       10
 70
   128
 43
0.0
 10
3.783953597390695
 20
3.388767967360173
 10
3.783953597390695
 20
2.254400925718156
 10
3.838556102403549
 20
2.254400925718156
 10
3.783953597390695
 20
2.254400925718156
 10
3.783953597390695
 20
2.240750299464943
 10
3.783953597390695
 20
2.172497168198878
 10
3.783953597390695
 20
2.090593410679598
 10
3.838556102403549
 20
2.090593410679598
 10
3.838556102403549
 20
1.913135269387828
 10
3.838556102403549
 20
1.817580885615335
  0
LWPOLYLINE
  5
36
100
AcDbEntity
  8
USP-GEO
100
AcDbPolyline
 90
        2
 70
   129
 43
0.0
 10
3.360101652228426
 20
2.923964143438263
 10
3.428354783494492
 20
2.923964143438263
  0
LWPOLYLINE
  5
37
100
AcDbEntity
  8
USP-GEO
100
AcDbPolyline
 90
        7
 70
   128
 43
0.0
 10
3.783953597390695
 20
2.090593410679598
 10
3.783953597390695
 20
1.913135269387828
 10
3.783953597390695
 20
1.817580885615335
 10
3.838556102403549
 20
1.817580885615335
 10
3.838556102403549
 20
1.803930259362122
 10
3.783953597390695
 20
1.803930259362122
 10
3.783953597390695
 20
1.817580885615335
  0
LWPOLYLINE
  5
38
100
AcDbEntity
  8
USP-GEO
100
AcDbPolyline
 90
        8
 70
   128
 43
0.0
 10
3.783953597390695
 20
1.311825182933786
 10
3.783953597390695
 20
1.584837707998049
 10
3.783953597390695
 20
1.74932775434927
 10
3.783953597390695
 20
1.803930259362122
 10
3.838556102403549
 20
1.803930259362122
 10
3.838556102403549
 20
1.74932775434927
 10
3.838556102403549
 20
1.584837707998049
 10
3.838556102403549
 20
1.311825182933786
  0
LWPOLYLINE
  5
39
100
AcDbEntity
  8
USP-GEO
100
AcDbPolyline
 90
        4
 70
   128
 43
0.0
 10
3.961411738682468
 20
2.158846541945665
 10
3.975062364935681
 20
2.22709967321173
 10
3.93411048617604
 20
2.377939093309736
 10
3.838556102403549
 20
2.473493477082229
  0
LWPOLYLINE
  5
3A
100
AcDbEntity
  8
USP-GEO
100
AcDbPolyline
 90
        9
 70
   128
 43
0.0
 10
3.838556102403549
 20
1.981388400653893
 10
3.893158607416401
 20
2.022340279413533
 10
3.893158607416401
 20
2.035990905666746
 10
3.906809233669614
 20
2.063292158173172
 10
3.920459859922827
 20
2.090593410679598
 10
3.93411048617604
 20
2.117894663186024
 10
3.947761112429255
 20
2.145195915692452
 10
3.961411738682468
 20
2.158846541945665
 10
3.962094269995128
 20
2.158846541945665
  0
LWPOLYLINE
  5
3B
100
AcDbEntity
  8
USP-GEO
100
AcDbPolyline
 90
        2
 70
   128
 43
0.0
 10
3.893158607416401
 20
2.022340279413533
 10
3.893841138729062
 20
2.022340279413533
  0
LWPOLYLINE
  5
3C
100
AcDbEntity
  8
USP-GEO
100
AcDbPolyline
 90
        2
 70
   129
 43
0.0
 10
3.523909167266983
 20
3.005867900957543
 10
3.783953597390695
 20
3.005867900957543
  0
ENDBLK
  5
3F
100
AcDbEntity
  8
0
100
AcDbBlockEnd
  0
BLOCK
  5
B9
100
AcDbEntity
  8
0
100
AcDbBlockBegin
  2
HUS177_F
 70
     0
 10
0.0
 20
0.0
 30
0.0
  3
HUS177_F
  1

  0
LWPOLYLINE
  5
42
100
AcDbEntity
  8
USP-GEO
100
AcDbPolyline
 90
        2
 70
   128
 43
0.0
 10
0.68321384397332
 20
2.049641531919959
 10
0.9425757427843706
 20
1.653090839264116
  0
LWPOLYLINE
  5
43
100
AcDbEntity
  8
USP-GEO
100
AcDbPolyline
 90
       47
 70
   128
 43
0.0
 10
3.523909167266983
 20
0.0
 10
3.838556102403549
 20
0.0
 10
3.523909167266983
 20
0.0
 10
3.51025854101377
 20
0.0
 10
3.469306662254131
 20
0.0
 10
3.428354783494492
 20
0.0
 10
3.360101652228426
 20
0.0
 10
3.319149773468787
 20
0.0
 10
3.278197894709148
 20
0.0
 10
3.264547268455933
 20
0.0
 10
2.513080293216548
 20
0.0
 10
2.472128414456909
 20
0.0
 10
2.431176535697268
 20
0.0
 10
2.362923404431203
 20
0.0
 10
2.308320899418349
 20
0.0
 10
2.281019646911923
 20
0.0
 10
2.26736902065871
 20
0.0
 10
1.939753990581595
 20
0.0
 10
1.939753990581595
 20
0.068253131266065
 10
1.939753990581595
 20
0.0955543837724928
 10
1.939753990581595
 20
0.1228556362789188
 10
1.939753990581595
 20
0.1501568887853448
 10
1.939753990581595
 20
1.653090839264116
 10
1.939753990581595
 20
2.049641531919959
 10
1.939753990581595
 20
2.486461572022781
 10
1.939753990581595
 20
2.951265395944691
 10
1.939753990581595
 20
3.934793017488701
 10
1.939753990581595
 20
4.098600532527258
 10
1.939753990581595
 20
4.249439952625264
 10
1.939753990581595
 20
4.331343710144544
 10
1.939753990581595
 20
4.385946215157396
 10
1.939753990581595
 20
4.467849972676676
 10
1.939753990581595
 20
4.577054982702382
 10
1.939753990581595
 20
5.670470145584758
 10
1.939753990581595
 20
5.779675155610463
 10
1.939753990581595
 20
5.861578913129743
 10
1.939753990581595
 20
5.916181418142596
 10
1.939753990581595
 20
6.0253864281683
 10
1.939753990581595
 20
6.216495195713285
 10
1.939753990581595
 20
6.421937120824144
 10
1.939753990581595
 20
6.613045888369128
 10
1.939753990581595
 20
6.722250898394833
 10
1.939753990581595
 20
6.776853403407686
 10
1.939753990581595
 20
6.858757160926966
 10
1.939753990581595
 20
6.96796217095267
 10
1.939753990581595
 20
7.17340409606353
 10
0.0
 20
7.17340409606353
  0
LWPOLYLINE
  5
44
100
AcDbEntity
  8
USP-GEO
100
AcDbPolyline
 90
       15
 70
   128
 43
0.0
 10
2.00800712184766
 20
5.670470145584758
 10
2.00800712184766
 20
5.779675155610463
 10
2.00800712184766
 20
5.861578913129743
 10
2.00800712184766
 20
5.916181418142596
 10
2.00800712184766
 20
6.0253864281683
 10
2.00800712184766
 20
6.216495195713285
 10
2.00800712184766
 20
6.421937120824144
 10
2.00800712184766
 20
6.613045888369128
 10
2.00800712184766
 20
6.722250898394833
 10
2.00800712184766
 20
6.776853403407686
 10
2.00800712184766
 20
6.858757160926966
 10
2.00800712184766
 20
6.96796217095267
 10
2.00800712184766
 20
7.17340409606353
 10
1.939753990581595
 20
7.17340409606353
 10
0.0
 20
7.17340409606353
  0
LWPOLYLINE
  5
45
100
AcDbEntity
  8
USP-GEO
100
AcDbPolyline
 90
        8
 70
   128
 43
0.0
 10
0.1774581412917726
 20
4.331343710144544
 10
0.3282975613897783
 20
4.249439952625264
 10
0.4238519451622694
 20
4.098600532527258
 10
0.4648038239219101
 20
3.934793017488701
 10
0.4648038239219101
 20
2.951265395944691
 10
0.5194063289347622
 20
2.486461572022781
 10
0.68321384397332
 20
2.049641531919959
 10
0.9425757427843706
 20
1.653090839264116
  0
LWPOLYLINE
  5
46
100
AcDbEntity
  8
USP-GEO
100
AcDbPolyline
 90
       12
 70
   129
 43
0.0
 10
0.7514669752393868
 20
6.148242064447219
 10
0.7787682277458128
 20
6.189193943206859
 10
0.8333707327586648
 20
6.202844569460072
 10
0.8743226115183055
 20
6.189193943206859
 10
0.9016238640247316
 20
6.148242064447219
 10
0.9152744902779446
 20
6.107290185687579
 10
0.9016238640247316
 20
6.06633830692794
 10
0.8743226115183055
 20
6.0253864281683
 10
0.8333707327586648
 20
6.0253864281683
 10
0.7787682277458128
 20
6.0253864281683
 10
0.7514669752393868
 20
6.06633830692794
 10
0.7378163489861738
 20
6.107290185687579
  0
LWPOLYLINE
  5
47
100
AcDbEntity
  8
USP-GEO
100
AcDbPolyline
 90
       12
 70
   129
 43
0.0
 10
0.7514669752393868
 20
2.431859067009929
 10
0.7787682277458128
 20
2.459160319516355
 10
0.8333707327586648
 20
2.472810945769568
 10
0.8743226115183055
 20
2.459160319516355
 10
0.9016238640247316
 20
2.431859067009929
 10
0.9152744902779446
 20
2.39090718825029
 10
0.9016238640247316
 20
2.336304683237436
 10
0.8743226115183055
 20
2.30900343073101
 10
0.8333707327586648
 20
2.295352804477797
 10
0.7787682277458128
 20
2.30900343073101
 10
0.7514669752393868
 20
2.336304683237436
 10
0.7378163489861738
 20
2.39090718825029
  0
LWPOLYLINE
  5
48
100
AcDbEntity
  8
USP-GEO
100
AcDbPolyline
 90
       12
 70
   129
 43
0.0
 10
0.7787682277458128
 20
4.317693083891331
 10
0.7514669752393868
 20
4.344994336397757
 10
0.7378163489861738
 20
4.385946215157396
 10
0.7514669752393868
 20
4.44054872017025
 10
0.7787682277458128
 20
4.467849972676676
 10
0.8333707327586648
 20
4.481500598929889
 10
0.8743226115183055
 20
4.467849972676676
 10
0.9016238640247316
 20
4.44054872017025
 10
0.9152744902779446
 20
4.385946215157396
 10
0.9016238640247316
 20
4.344994336397757
 10
0.8743226115183055
 20
4.317693083891331
 10
0.8333707327586648
 20
4.304042457638118
  0
LWPOLYLINE
  5
49
100
AcDbEntity
  8
USP-GEO
100
AcDbPolyline
 90
        2
 70
   129
 43
0.0
 10
0.0
 20
4.577054982702382
 10
0.0
 20
5.670470145584758
  0
LWPOLYLINE
  5
4A
100
AcDbEntity
  8
USP-GEO
100
AcDbPolyline
 90
        3
 70
   128
 43
0.0
 10
0.4238519451622694
 20
4.098600532527258
 10
0.4648038239219101
 20
3.934793017488701
 10
0.4648038239219101
 20
2.951265395944691
  0
LWPOLYLINE
  5
4B
100
AcDbEntity
  8
USP-GEO
100
AcDbPolyline
 90
        3
 70
   128
 43
0.0
 10
0.0819037575192798
 20
4.385946215157396
 10
0.027301252506426
 20
4.467849972676676
 10
0.0
 20
4.577054982702382
  0
LWPOLYLINE
  5
4C
100
AcDbEntity
  8
USP-GEO
100
AcDbPolyline
 90
        2
 70
   129
 43
0.0
 10
0.1774581412917726
 20
4.331343710144544
 10
0.0819037575192798
 20
4.385946215157396
  0
LWPOLYLINE
  5
4D
100
AcDbEntity
  8
USP-GEO
100
AcDbPolyline
 90
       12
 70
   129
 43
0.0
 10
0.2320606463046246
 20
5.137413190396783
 10
0.2457112725578376
 20
5.178365069156423
 10
0.2730125250642637
 20
5.219316947916062
 10
0.3146469351365635
 20
5.232967574169275
 10
0.3692494401494173
 20
5.219316947916062
 10
0.3965506926558433
 20
5.178365069156423
 10
0.4102013189090564
 20
5.137413190396783
 10
0.3965506926558433
 20
5.096461311637143
 10
0.3692494401494173
 20
5.055509432877504
 10
0.3146469351365635
 20
5.055509432877504
 10
0.2730125250642637
 20
5.055509432877504
 10
0.2457112725578376
 20
5.096461311637143
  0
LWPOLYLINE
  5
4E
100
AcDbEntity
  8
USP-GEO
100
AcDbPolyline
 90
        5
 70
   128
 43
0.0
 10
0.1774581412917726
 20
6.722250898394833
 10
0.3555988138962043
 20
6.613045888369128
 10
0.4511531976686954
 20
6.421937120824144
 10
0.4511531976686954
 20
6.216495195713285
 10
0.3555988138962043
 20
6.0253864281683
  0
LWPOLYLINE
  5
4F
100
AcDbEntity
  8
USP-GEO
100
AcDbPolyline
 90
        2
 70
   129
 43
0.0
 10
0.1774581412917726
 20
5.916181418142596
 10
0.3555988138962043
 20
6.0253864281683
  0
LWPOLYLINE
  5
50
100
AcDbEntity
  8
USP-GEO
100
AcDbPolyline
 90
        4
 70
   128
 43
0.0
 10
0.1774581412917726
 20
5.916181418142596
 10
0.0819037575192798
 20
5.861578913129743
 10
0.027301252506426
 20
5.779675155610463
 10
0.0
 20
5.670470145584758
  0
LWPOLYLINE
  5
51
100
AcDbEntity
  8
USP-GEO
100
AcDbPolyline
 90
       12
 70
   129
 43
0.0
 10
0.2730125250642637
 20
6.817805282167327
 10
0.2457112725578376
 20
6.845106534673753
 10
0.2320606463046246
 20
6.886058413433392
 10
0.2457112725578376
 20
6.940660918446244
 10
0.2730125250642637
 20
6.96796217095267
 10
0.3146469351365635
 20
6.981612797205883
 10
0.3692494401494173
 20
6.96796217095267
 10
0.3965506926558433
 20
6.940660918446244
 10
0.4102013189090564
 20
6.886058413433392
 10
0.3965506926558433
 20
6.845106534673753
 10
0.3692494401494173
 20
6.817805282167327
 10
0.3146469351365635
 20
6.804154655914114
  0
LWPOLYLINE
  5
52
100
AcDbEntity
  8
USP-GEO
100
AcDbPolyline
 90
        2
 70
   129
 43
0.0
 10
0.0
 20
6.96796217095267
 10
0.0
 20
7.17340409606353
  0
LWPOLYLINE
  5
53
100
AcDbEntity
  8
USP-GEO
100
AcDbPolyline
 90
        2
 70
   129
 43
0.0
 10
0.1774581412917726
 20
6.722250898394833
 10
0.0819037575192798
 20
6.776853403407686
  0
LWPOLYLINE
  5
54
100
AcDbEntity
  8
USP-GEO
100
AcDbPolyline
 90
        3
 70
   128
 43
0.0
 10
0.0819037575192798
 20
6.776853403407686
 10
0.027301252506426
 20
6.858757160926966
 10
0.0
 20
6.96796217095267
  0
LWPOLYLINE
  5
55
100
AcDbEntity
  8
USP-GEO
100
AcDbPolyline
 90
        2
 70
   128
 43
0.0
 10
0.2730125250642637
 20
6.96796217095267
 10
0.3146469351365635
 20
6.981612797205883
  0
LWPOLYLINE
  5
56
100
AcDbEntity
  8
USP-GEO
100
AcDbPolyline
 90
       17
 70
   128
 43
0.0
 10
2.00800712184766
 20
0.068253131266065
 10
2.00800712184766
 20
0.0955543837724928
 10
2.00800712184766
 20
0.1228556362789188
 10
2.00800712184766
 20
0.1501568887853448
 10
2.00800712184766
 20
1.653090839264116
 10
2.00800712184766
 20
2.049641531919959
 10
2.00800712184766
 20
2.486461572022781
 10
2.00800712184766
 20
2.951265395944691
 10
2.00800712184766
 20
3.934793017488701
 10
2.00800712184766
 20
4.098600532527258
 10
2.00800712184766
 20
4.249439952625264
 10
2.00800712184766
 20
4.331343710144544
 10
2.00800712184766
 20
4.385946215157396
 10
2.00800712184766
 20
4.467849972676676
 10
2.00800712184766
 20
4.577054982702382
 10
2.00800712184766
 20
5.670470145584758
 10
1.939753990581595
 20
5.670470145584758
  0
LWPOLYLINE
  5
57
100
AcDbEntity
  8
USP-GEO
100
AcDbPolyline
 90
       15
 70
   128
 43
0.0
 10
3.838556102403549
 20
6.776853403407686
 10
3.838556102403549
 20
7.17340409606353
 10
5.777627561672483
 20
7.17340409606353
 10
5.777627561672483
 20
6.776853403407686
 10
5.76397693541927
 20
6.681299019635194
 10
5.695723804153201
 20
6.599395262115915
 10
5.613820046633923
 20
6.544792757103063
 10
5.436361905342153
 20
6.421937120824144
 10
5.34080752156966
 20
6.243796448219711
 10
5.34080752156966
 20
6.0253864281683
 10
5.436361905342153
 20
5.84792828687653
 10
5.613820046633923
 20
5.725072650597611
 10
5.695723804153201
 20
5.670470145584758
 10
5.76397693541927
 20
5.588566388065479
 10
5.777627561672483
 20
5.492329472980325
  0
LWPOLYLINE
  5
58
100
AcDbEntity
  8
USP-GEO
100
AcDbPolyline
 90
       30
 70
   128
 43
0.0
 10
3.783953597390695
 20
0.1501568887853448
 10
3.783953597390695
 20
0.1228556362789188
 10
3.783953597390695
 20
0.0955543837724928
 10
3.783953597390695
 20
0.068253131266065
 10
3.783953597390695
 20
0.0955543837724928
 10
3.783953597390695
 20
0.1228556362789188
 10
3.783953597390695
 20
0.1501568887853448
 10
3.783953597390695
 20
1.653090839264116
 10
3.783953597390695
 20
2.049641531919959
 10
3.783953597390695
 20
2.486461572022781
 10
3.783953597390695
 20
2.951265395944691
 10
3.783953597390695
 20
3.934793017488701
 10
3.783953597390695
 20
4.098600532527258
 10
3.783953597390695
 20
4.249439952625264
 10
3.783953597390695
 20
4.331343710144544
 10
3.783953597390695
 20
4.385946215157396
 10
3.783953597390695
 20
4.467849972676676
 10
3.783953597390695
 20
4.577054982702382
 10
3.783953597390695
 20
5.492329472980325
 10
3.783953597390695
 20
5.588566388065479
 10
3.783953597390695
 20
5.670470145584758
 10
3.783953597390695
 20
5.725072650597611
 10
3.783953597390695
 20
5.84792828687653
 10
3.783953597390695
 20
6.0253864281683
 10
3.783953597390695
 20
6.243796448219711
 10
3.783953597390695
 20
6.421937120824144
 10
3.783953597390695
 20
6.544792757103063
 10
3.783953597390695
 20
6.599395262115915
 10
3.783953597390695
 20
6.681299019635194
 10
3.783953597390695
 20
6.776853403407686
  0
LWPOLYLINE
  5
59
100
AcDbEntity
  8
USP-GEO
100
AcDbPolyline
 90
       42
 70
   128
 43
0.0
 10
1.939753990581595
 20
4.577054982702382
 10
1.939753990581595
 20
5.670470145584758
 10
1.939753990581595
 20
5.779675155610463
 10
1.939753990581595
 20
5.861578913129743
 10
1.939753990581595
 20
5.916181418142596
 10
2.00800712184766
 20
5.916181418142596
 10
2.00800712184766
 20
5.861578913129743
 10
2.00800712184766
 20
5.779675155610463
 10
2.00800712184766
 20
5.670470145584758
 10
2.00800712184766
 20
4.577054982702382
 10
2.00800712184766
 20
4.467849972676676
 10
2.00800712184766
 20
4.385946215157396
 10
2.00800712184766
 20
4.331343710144544
 10
2.00800712184766
 20
4.249439952625264
 10
2.00800712184766
 20
4.098600532527258
 10
2.00800712184766
 20
3.934793017488701
 10
2.00800712184766
 20
2.951265395944691
 10
2.00800712184766
 20
2.486461572022781
 10
2.00800712184766
 20
2.049641531919959
 10
2.00800712184766
 20
1.653090839264116
 10
2.00800712184766
 20
0.1501568887853448
 10
2.00800712184766
 20
0.1228556362789188
 10
2.00800712184766
 20
0.0955543837724928
 10
2.00800712184766
 20
0.068253131266065
 10
2.00800712184766
 20
0.054602505012852
 10
2.26736902065871
 20
0.054602505012852
 10
2.281019646911923
 20
0.054602505012852
 10
2.308320899418349
 20
0.054602505012852
 10
2.362923404431203
 20
0.054602505012852
 10
2.431176535697268
 20
0.054602505012852
 10
2.472128414456909
 20
0.054602505012852
 10
2.513080293216548
 20
0.054602505012852
 10
3.264547268455933
 20
0.054602505012852
 10
3.278197894709148
 20
0.054602505012852
 10
3.319149773468787
 20
0.054602505012852
 10
3.360101652228426
 20
0.054602505012852
 10
3.428354783494492
 20
0.054602505012852
 10
3.469306662254131
 20
0.054602505012852
 10
3.51025854101377
 20
0.054602505012852
 10
3.523909167266983
 20
0.054602505012852
 10
3.783953597390695
 20
0.054602505012852
 10
3.523909167266983
 20
0.054602505012852
  0
LWPOLYLINE
  5
5A
100
AcDbEntity
  8
USP-GEO
100
AcDbPolyline
 90
        5
 70
   128
 43
0.0
 10
3.783953597390695
 20
5.725072650597611
 10
3.838556102403549
 20
5.725072650597611
 10
3.838556102403549
 20
5.670470145584758
 10
3.838556102403549
 20
5.588566388065479
 10
3.838556102403549
 20
5.492329472980325
  0
LWPOLYLINE
  5
5B
100
AcDbEntity
  8
USP-GEO
100
AcDbPolyline
 90
       11
 70
   128
 43
0.0
 10
3.783953597390695
 20
6.544792757103063
 10
3.783953597390695
 20
6.421937120824144
 10
3.783953597390695
 20
6.243796448219711
 10
3.783953597390695
 20
6.0253864281683
 10
3.783953597390695
 20
5.84792828687653
 10
3.783953597390695
 20
5.725072650597611
 10
3.783953597390695
 20
5.670470145584758
 10
3.783953597390695
 20
5.588566388065479
 10
3.783953597390695
 20
5.492329472980325
 10
3.838556102403549
 20
5.492329472980325
 10
3.838556102403549
 20
4.577054982702382
  0
LWPOLYLINE
  5
5C
100
AcDbEntity
  8
USP-GEO
100
AcDbPolyline
 90
       25
 70
   128
 43
0.0
 10
3.838556102403549
 20
2.486461572022781
 10
3.838556102403549
 20
2.951265395944691
 10
3.838556102403549
 20
3.934793017488701
 10
3.838556102403549
 20
4.098600532527258
 10
3.838556102403549
 20
4.249439952625264
 10
3.838556102403549
 20
4.331343710144544
 10
3.838556102403549
 20
4.385946215157396
 10
3.838556102403549
 20
4.467849972676676
 10
3.838556102403549
 20
4.577054982702382
 10
3.838556102403549
 20
5.492329472980325
 10
3.838556102403549
 20
5.588566388065479
 10
3.838556102403549
 20
5.670470145584758
 10
3.838556102403549
 20
5.725072650597611
 10
3.838556102403549
 20
5.84792828687653
 10
3.838556102403549
 20
6.0253864281683
 10
3.838556102403549
 20
6.243796448219711
 10
3.838556102403549
 20
6.421937120824144
 10
3.838556102403549
 20
6.544792757103063
 10
3.838556102403549
 20
6.599395262115915
 10
3.838556102403549
 20
6.681299019635194
 10
3.838556102403549
 20
6.776853403407686
 10
3.838556102403549
 20
7.17340409606353
 10
5.777627561672483
 20
7.17340409606353
 10
5.777627561672483
 20
6.776853403407686
 10
5.76397693541927
 20
6.681299019635194
  0
TEXT
  5
5D
100
AcDbEntity
  8
USP-TXT
100
AcDbText
 10
0.9929804475029069
 20
-1.285448780549252
 30
0.0
 40
0.203125
  1
HUS177 - FRONT VIEW
 72
     1
 11
2.88881378083624
 21
-1.285448780549252
 31
0.0
100
AcDbText
  0
LWPOLYLINE
  5
5E
100
AcDbEntity
  8
USP-GEO
100
AcDbPolyline
 90
        2
 70
   129
 43
0.0
 10
4.849384976453984
 20
1.653090839264116
 10
3.93411048617604
 20
0.5876594602008272
  0
LWPOLYLINE
  5
5F
100
AcDbEntity
  8
USP-GEO
100
AcDbPolyline
 90
        3
 70
   128
 43
0.0
 10
2.00800712184766
 20
1.653090839264116
 10
1.939753990581595
 20
1.653090839264116
 10
1.939753990581595
 20
0.1501568887853448
  0
LWPOLYLINE
  5
60
100
AcDbEntity
  8
USP-GEO
100
AcDbPolyline
 90
        8
 70
   128
 43
0.0
 10
3.838556102403549
 20
0.1501568887853448
 10
3.838556102403549
 20
1.653090839264116
 10
3.783953597390695
 20
1.653090839264116
 10
3.783953597390695
 20
0.1501568887853448
 10
3.838556102403549
 20
0.1501568887853448
 10
3.838556102403549
 20
0.1228556362789188
 10
3.838556102403549
 20
0.0955543837724928
 10
3.838556102403549
 20
0.068253131266065
  0
LWPOLYLINE
  5
61
100
AcDbEntity
  8
USP-GEO
100
AcDbPolyline
 90
        2
 70
   129
 43
0.0
 10
1.939753990581595
 20
0.4921050764283362
 10
0.9425757427843706
 20
1.653090839264116
  0
LWPOLYLINE
  5
62
100
AcDbEntity
  8
USP-GEO
100
AcDbPolyline
 90
       16
 70
   128
 43
0.0
 10
3.783953597390695
 20
0.068253131266065
 10
3.783953597390695
 20
0.054602505012852
 10
3.783953597390695
 20
0.068253131266065
 10
3.838556102403549
 20
0.068253131266065
 10
3.838556102403549
 20
0.0
 10
3.838556102403549
 20
0.068253131266065
 10
3.838556102403549
 20
0.0955543837724928
 10
3.838556102403549
 20
0.1228556362789188
 10
3.838556102403549
 20
0.1501568887853448
 10
3.838556102403549
 20
1.653090839264116
 10
3.838556102403549
 20
2.049641531919959
 10
3.838556102403549
 20
2.486461572022781
 10
3.93411048617604
 20
2.39090718825029
 10
3.975062364935681
 20
2.22709967321173
 10
3.93411048617604
 20
2.076942784426385
 10
3.838556102403549
 20
1.981388400653894
  0
LWPOLYLINE
  5
63
100
AcDbEntity
  8
USP-GEO
100
AcDbPolyline
 90
        8
 70
   128
 43
0.0
 10
2.431176535697268
 20
0.054602505012852
 10
2.472128414456909
 20
0.054602505012852
 10
2.513080293216548
 20
0.054602505012852
 10
2.513080293216548
 20
0.0
 10
3.264547268455933
 20
0.0
 10
3.264547268455933
 20
0.054602505012852
 10
2.513080293216548
 20
0.054602505012852
 10
2.513762824529209
 20
0.054602505012852
  0
LWPOLYLINE
  5
64
100
AcDbEntity
  8
USP-GEO
100
AcDbPolyline
 90
       11
 70
   128
 43
0.0
 10
1.939753990581595
 20
0.068253131266065
 10
1.939753990581595
 20
0.0
 10
2.26736902065871
 20
0.0
 10
2.281019646911923
 20
0.0
 10
2.308320899418349
 20
0.0
 10
2.362923404431203
 20
0.0
 10
2.362923404431203
 20
0.054602505012852
 10
2.308320899418349
 20
0.054602505012852
 10
2.281019646911923
 20
0.054602505012852
 10
2.26736902065871
 20
0.054602505012852
 10
2.26736902065871
 20
0.0
  0
LWPOLYLINE
  5
65
100
AcDbEntity
  8
USP-GEO
100
AcDbPolyline
 90
        8
 70
   128
 43
0.0
 10
2.00800712184766
 20
0.1501568887853448
 10
1.939753990581595
 20
0.1501568887853448
 10
1.939753990581595
 20
0.1228556362789188
 10
1.939753990581595
 20
0.0955543837724928
 10
1.939753990581595
 20
0.068253131266065
 10
2.00800712184766
 20
0.068253131266065
 10
2.00800712184766
 20
0.054602505012852
 10
2.26736902065871
 20
0.054602505012852
  0
LWPOLYLINE
  5
66
100
AcDbEntity
  8
USP-GEO
100
AcDbPolyline
 90
        4
 70
   128
 43
0.0
 10
2.431176535697268
 20
0.0
 10
2.472128414456909
 20
0.0
 10
2.513080293216548
 20
0.0
 10
2.513762824529209
 20
0.0
  0
LWPOLYLINE
  5
67
100
AcDbEntity
  8
USP-GEO
100
AcDbPolyline
 90
        4
 70
   128
 43
0.0
 10
2.362923404431203
 20
0.0
 10
2.431176535697268
 20
0.0
 10
2.431176535697268
 20
0.054602505012852
 10
2.362923404431203
 20
0.054602505012852
  0
LWPOLYLINE
  5
68
100
AcDbEntity
  8
USP-GEO
100
AcDbPolyline
 90
        5
 70
   128
 43
0.0
 10
1.939753990581595
 20
1.160985762835782
 10
1.857850233062315
 20
1.079082005316502
 10
1.816898354302676
 20
0.9152744902779446
 10
1.857850233062315
 20
0.7651176014925998
 10
1.939753990581595
 20
0.669563217720107
  0
LWPOLYLINE
  5
69
100
AcDbEntity
  8
USP-GEO
100
AcDbPolyline
 90
       16
 70
   129
 43
0.0
 10
1.885151485568741
 20
0.8606719852650908
 10
1.871500859315528
 20
0.8470213590118778
 10
1.857850233062315
 20
0.8333707327586648
 10
1.844199606809102
 20
0.8470213590118778
 10
1.830548980555889
 20
0.8606719852650908
 10
1.830548980555889
 20
0.8879732377715185
 10
1.830548980555889
 20
0.9152744902779446
 10
1.830548980555889
 20
0.9425757427843706
 10
1.830548980555889
 20
0.9698769952907966
 10
1.844199606809102
 20
0.9835276215440096
 10
1.857850233062315
 20
0.9971782477972226
 10
1.871500859315528
 20
0.9835276215440096
 10
1.885151485568741
 20
0.9698769952907966
 10
1.898802111821954
 20
0.9425757427843706
 10
1.898802111821954
 20
0.9152744902779446
 10
1.898802111821954
 20
0.8879732377715185
  0
LWPOLYLINE
  5
6A
100
AcDbEntity
  8
USP-GEO
100
AcDbPolyline
 90
        7
 70
   128
 43
0.0
 10
1.885834016881402
 20
0.9698769952907966
 10
1.885151485568741
 20
0.9698769952907966
 10
1.885151485568741
 20
0.9425757427843706
 10
1.885151485568741
 20
0.9152744902779446
 10
1.885151485568741
 20
0.8879732377715185
 10
1.885151485568741
 20
0.8606719852650908
 10
1.885834016881402
 20
0.8606719852650908
  0
LWPOLYLINE
  5
6B
100
AcDbEntity
  8
USP-GEO
100
AcDbPolyline
 90
        4
 70
   128
 43
0.0
 10
3.360101652228426
 20
0.0
 10
3.428354783494492
 20
0.0
 10
3.428354783494492
 20
0.054602505012852
 10
3.360101652228426
 20
0.054602505012852
  0
LWPOLYLINE
  5
6C
100
AcDbEntity
  8
USP-GEO
100
AcDbPolyline
 90
        8
 70
   128
 43
0.0
 10
3.264547268455933
 20
0.0
 10
3.278197894709148
 20
0.0
 10
3.319149773468787
 20
0.0
 10
3.360101652228426
 20
0.0
 10
3.360101652228426
 20
0.054602505012852
 10
3.319149773468787
 20
0.054602505012852
 10
3.278197894709148
 20
0.054602505012852
 10
3.264547268455933
 20
0.054602505012852
  0
LWPOLYLINE
  5
6D
100
AcDbEntity
  8
USP-GEO
100
AcDbPolyline
 90
        8
 70
   128
 43
0.0
 10
3.428354783494492
 20
0.0
 10
3.469306662254131
 20
0.0
 10
3.51025854101377
 20
0.0
 10
3.523909167266983
 20
0.0
 10
3.523909167266983
 20
0.054602505012852
 10
3.51025854101377
 20
0.054602505012852
 10
3.469306662254131
 20
0.054602505012852
 10
3.428354783494492
 20
0.054602505012852
  0
LWPOLYLINE
  5
6E
100
AcDbEntity
  8
USP-GEO
100
AcDbPolyline
 90
        7
 70
   128
 43
0.0
 10
3.893158607416401
 20
0.7924188539990258
 10
3.906809233669614
 20
0.7787682277458128
 10
3.906809233669614
 20
0.7651176014925998
 10
3.906809233669614
 20
0.724165722732959
 10
3.906809233669614
 20
0.696864470226533
 10
3.906809233669614
 20
0.669563217720107
 10
3.893158607416401
 20
0.669563217720107
  0
LWPOLYLINE
  5
6F
100
AcDbEntity
  8
USP-GEO
100
AcDbPolyline
 90
        5
 70
   128
 43
0.0
 10
3.838556102403549
 20
0.4777719188624623
 10
3.93411048617604
 20
0.5740088339476142
 10
3.975062364935681
 20
0.724165722732959
 10
3.93411048617604
 20
0.8879732377715185
 10
3.838556102403549
 20
0.9835276215440096
  0
LWPOLYLINE
  5
70
100
AcDbEntity
  8
USP-GEO
100
AcDbPolyline
 90
       16
 70
   129
 43
0.0
 10
3.893158607416401
 20
0.669563217720107
 10
3.893158607416401
 20
0.696864470226533
 10
3.893158607416401
 20
0.724165722732959
 10
3.893158607416401
 20
0.7651176014925998
 10
3.893158607416401
 20
0.7787682277458128
 10
3.906809233669614
 20
0.8060694802522387
 10
3.920459859922827
 20
0.8060694802522387
 10
3.93411048617604
 20
0.8060694802522387
 10
3.947761112429255
 20
0.7787682277458128
 10
3.961411738682468
 20
0.7651176014925998
 10
3.961411738682468
 20
0.724165722732959
 10
3.961411738682468
 20
0.696864470226533
 10
3.947761112429255
 20
0.669563217720107
 10
3.93411048617604
 20
0.655912591466894
 10
3.920459859922827
 20
0.655912591466894
 10
3.906809233669614
 20
0.655912591466894
  0
LWPOLYLINE
  5
71
100
AcDbEntity
  8
USP-GEO
100
AcDbPolyline
 90
        3
 70
   128
 43
0.0
 10
2.00800712184766
 20
3.934793017488701
 10
1.939753990581595
 20
3.934793017488701
 10
1.939753990581595
 20
2.951265395944691
  0
LWPOLYLINE
  5
72
100
AcDbEntity
  8
USP-GEO
100
AcDbPolyline
 90
       12
 70
   129
 43
0.0
 10
1.461982071719132
 20
1.339126435440213
 10
1.448331445465919
 20
1.380078314199852
 10
1.461982071719132
 20
1.434680819212706
 10
1.489283324225558
 20
1.461982071719132
 10
1.543885829238412
 20
1.475632697972345
 10
1.584837707998051
 20
1.461982071719132
 10
1.612138960504477
 20
1.434680819212706
 10
1.62578958675769
 20
1.380078314199852
 10
1.612138960504477
 20
1.339126435440213
 10
1.584837707998051
 20
1.311825182933787
 10
1.543885829238412
 20
1.298174556680574
 10
1.489283324225558
 20
1.311825182933787
  0
LWPOLYLINE
  5
73
100
AcDbEntity
  8
USP-GEO
100
AcDbPolyline
 90
       12
 70
   129
 43
0.0
 10
1.448331445465919
 20
2.883012264678624
 10
1.461982071719132
 20
2.937614769691478
 10
1.489283324225558
 20
2.964916022197904
 10
1.543885829238412
 20
2.978566648451117
 10
1.584837707998051
 20
2.964916022197904
 10
1.612138960504477
 20
2.937614769691478
 10
1.62578958675769
 20
2.883012264678624
 10
1.612138960504477
 20
2.842060385918985
 10
1.584837707998051
 20
2.814759133412559
 10
1.543885829238412
 20
2.801108507159346
 10
1.489283324225558
 20
2.814759133412559
 10
1.461982071719132
 20
2.842060385918985
  0
LWPOLYLINE
  5
74
100
AcDbEntity
  8
USP-GEO
100
AcDbPolyline
 90
        5
 70
   128
 43
0.0
 10
2.00800712184766
 20
2.951265395944691
 10
1.939753990581595
 20
2.951265395944691
 10
1.939753990581595
 20
2.486461572022781
 10
1.939753990581595
 20
2.049641531919959
 10
1.939753990581595
 20
1.653090839264116
  0
LWPOLYLINE
  5
75
100
AcDbEntity
  8
USP-GEO
100
AcDbPolyline
 90
        5
 70
   128
 43
0.0
 10
1.939753990581595
 20
2.664602244627214
 10
1.857850233062315
 20
2.568365329542061
 10
1.816898354302676
 20
2.418208440756716
 10
1.857850233062315
 20
2.268051551971371
 10
1.939753990581595
 20
2.172497168198878
  0
LWPOLYLINE
  5
76
100
AcDbEntity
  8
USP-GEO
100
AcDbPolyline
 90
       16
 70
   129
 43
0.0
 10
1.885151485568741
 20
2.363605935743862
 10
1.871500859315528
 20
2.349955309490649
 10
1.857850233062315
 20
2.336304683237436
 10
1.844199606809102
 20
2.349955309490649
 10
1.830548980555889
 20
2.363605935743862
 10
1.830548980555889
 20
2.39090718825029
 10
1.830548980555889
 20
2.418208440756716
 10
1.830548980555889
 20
2.445509693263142
 10
1.830548980555889
 20
2.472810945769568
 10
1.844199606809102
 20
2.486461572022781
 10
1.857850233062315
 20
2.500112198275996
 10
1.871500859315528
 20
2.486461572022781
 10
1.885151485568741
 20
2.472810945769568
 10
1.898802111821954
 20
2.445509693263142
 10
1.898802111821954
 20
2.418208440756716
 10
1.898802111821954
 20
2.39090718825029
  0
LWPOLYLINE
  5
77
100
AcDbEntity
  8
USP-GEO
100
AcDbPolyline
 90
        7
 70
   128
 43
0.0
 10
1.885834016881402
 20
2.472810945769568
 10
1.885151485568741
 20
2.472810945769568
 10
1.885151485568741
 20
2.445509693263142
 10
1.885151485568741
 20
2.418208440756716
 10
1.885151485568741
 20
2.39090718825029
 10
1.885151485568741
 20
2.363605935743862
 10
1.885834016881402
 20
2.363605935743862
  0
LWPOLYLINE
  5
78
100
AcDbEntity
  8
USP-GEO
100
AcDbPolyline
 90
       12
 70
   129
 43
0.0
 10
1.448331445465919
 20
3.893841138729062
 10
1.461982071719132
 20
3.934793017488701
 10
1.489283324225558
 20
3.962094269995127
 10
1.543885829238412
 20
3.97574489624834
 10
1.584837707998051
 20
3.962094269995127
 10
1.612138960504477
 20
3.934793017488701
 10
1.62578958675769
 20
3.893841138729062
 10
1.612138960504477
 20
3.839238633716208
 10
1.584837707998051
 20
3.811937381209782
 10
1.543885829238412
 20
3.798286754956569
 10
1.489283324225558
 20
3.811937381209782
 10
1.461982071719132
 20
3.839238633716208
  0
LWPOLYLINE
  5
79
100
AcDbEntity
  8
USP-GEO
100
AcDbPolyline
 90
       12
 70
   129
 43
0.0
 10
1.461982071719132
 20
4.850750039079306
 10
1.448331445465919
 20
4.891701917838945
 10
1.461982071719132
 20
4.932653796598585
 10
1.489283324225558
 20
4.973605675358225
 10
1.543885829238412
 20
4.973605675358225
 10
1.584837707998051
 20
4.973605675358225
 10
1.612138960504477
 20
4.932653796598585
 10
1.62578958675769
 20
4.891701917838945
 10
1.612138960504477
 20
4.850750039079306
 10
1.584837707998051
 20
4.809115629007005
 10
1.543885829238412
 20
4.795465002753792
 10
1.489283324225558
 20
4.809115629007005
  0
LWPOLYLINE
  5
7A
100
AcDbEntity
  8
USP-GEO
100
AcDbPolyline
 90
        6
 70
   128
 43
0.0
 10
2.00800712184766
 20
4.577054982702382
 10
1.939753990581595
 20
4.577054982702382
 10
1.939753990581595
 20
4.467849972676676
 10
1.939753990581595
 20
4.385946215157396
 10
1.939753990581595
 20
4.331343710144544
 10
2.00800712184766
 20
4.331343710144544
  0
LWPOLYLINE
  5
7B
100
AcDbEntity
  8
USP-GEO
100
AcDbPolyline
 90
        4
 70
   128
 43
0.0
 10
1.939753990581595
 20
4.331343710144544
 10
1.939753990581595
 20
4.249439952625264
 10
1.939753990581595
 20
4.098600532527258
 10
1.939753990581595
 20
3.934793017488701
  0
LWPOLYLINE
  5
7C
100
AcDbEntity
  8
USP-GEO
100
AcDbPolyline
 90
        5
 70
   128
 43
0.0
 10
1.939753990581595
 20
4.167536195105986
 10
1.857850233062315
 20
4.071299280020832
 10
1.816898354302676
 20
3.921142391235488
 10
1.857850233062315
 20
3.75733487619693
 10
1.939753990581595
 20
3.67543111867765
  0
LWPOLYLINE
  5
7D
100
AcDbEntity
  8
USP-GEO
100
AcDbPolyline
 90
        7
 70
   128
 43
0.0
 10
1.885834016881402
 20
3.97574489624834
 10
1.885151485568741
 20
3.97574489624834
 10
1.885151485568741
 20
3.948443643741914
 10
1.885151485568741
 20
3.921142391235488
 10
1.885151485568741
 20
3.893841138729062
 10
1.885151485568741
 20
3.866539886222636
 10
1.885834016881402
 20
3.866539886222636
  0
LWPOLYLINE
  5
7E
100
AcDbEntity
  8
USP-GEO
100
AcDbPolyline
 90
       16
 70
   129
 43
0.0
 10
1.830548980555889
 20
3.893841138729062
 10
1.830548980555889
 20
3.921142391235488
 10
1.830548980555889
 20
3.948443643741914
 10
1.830548980555889
 20
3.97574489624834
 10
1.844199606809102
 20
3.989395522501554
 10
1.857850233062315
 20
4.003046148754767
 10
1.871500859315528
 20
3.989395522501554
 10
1.885151485568741
 20
3.97574489624834
 10
1.898802111821954
 20
3.948443643741914
 10
1.898802111821954
 20
3.921142391235488
 10
1.898802111821954
 20
3.893841138729062
 10
1.885151485568741
 20
3.866539886222636
 10
1.871500859315528
 20
3.852889259969423
 10
1.857850233062315
 20
3.839238633716208
 10
1.844199606809102
 20
3.852889259969423
 10
1.830548980555889
 20
3.866539886222636
  0
LWPOLYLINE
  5
7F
100
AcDbEntity
  8
USP-GEO
100
AcDbPolyline
 90
        5
 70
   128
 43
0.0
 10
3.783953597390695
 20
3.934793017488701
 10
3.783953597390695
 20
2.951265395944691
 10
3.783953597390695
 20
2.486461572022781
 10
3.783953597390695
 20
2.049641531919959
 10
3.783953597390695
 20
1.653090839264116
  0
LWPOLYLINE
  5
80
100
AcDbEntity
  8
USP-GEO
100
AcDbPolyline
 90
       10
 70
   128
 43
0.0
 10
3.783953597390695
 20
5.492329472980325
 10
3.783953597390695
 20
4.577054982702382
 10
3.783953597390695
 20
4.467849972676676
 10
3.783953597390695
 20
4.385946215157396
 10
3.783953597390695
 20
4.331343710144544
 10
3.783953597390695
 20
4.249439952625264
 10
3.783953597390695
 20
4.098600532527258
 10
3.783953597390695
 20
3.934793017488701
 10
3.838556102403549
 20
3.934793017488701
 10
3.838556102403549
 20
2.951265395944691
  0
LWPOLYLINE
  5
81
100
AcDbEntity
  8
USP-GEO
100
AcDbPolyline
 90
        5
 70
   128
 43
0.0
 10
3.838556102403549
 20
1.653090839264116
 10
3.838556102403549
 20
2.049641531919959
 10
3.838556102403549
 20
2.486461572022781
 10
3.838556102403549
 20
2.951265395944691
 10
3.783953597390695
 20
2.951265395944691
  0
LWPOLYLINE
  5
82
100
AcDbEntity
  8
USP-GEO
100
AcDbPolyline
 90
       16
 70
   129
 43
0.0
 10
3.893158607416401
 20
2.172497168198878
 10
3.893158607416401
 20
2.199798420705304
 10
3.893158607416401
 20
2.22709967321173
 10
3.893158607416401
 20
2.254400925718158
 10
3.893158607416401
 20
2.281702178224584
 10
3.906809233669614
 20
2.30900343073101
 10
3.920459859922827
 20
2.30900343073101
 10
3.93411048617604
 20
2.30900343073101
 10
3.947761112429255
 20
2.281702178224584
 10
3.961411738682468
 20
2.254400925718158
 10
3.961411738682468
 20
2.22709967321173
 10
3.961411738682468
 20
2.199798420705304
 10
3.947761112429255
 20
2.172497168198878
 10
3.93411048617604
 20
2.158846541945665
 10
3.920459859922827
 20
2.158846541945665
 10
3.906809233669614
 20
2.158846541945665
  0
LWPOLYLINE
  5
83
100
AcDbEntity
  8
USP-GEO
100
AcDbPolyline
 90
        7
 70
   128
 43
0.0
 10
3.893158607416401
 20
2.281702178224584
 10
3.906809233669614
 20
2.281702178224584
 10
3.906809233669614
 20
2.254400925718158
 10
3.906809233669614
 20
2.22709967321173
 10
3.906809233669614
 20
2.199798420705304
 10
3.906809233669614
 20
2.172497168198878
 10
3.893158607416401
 20
2.172497168198878
  0
LWPOLYLINE
  5
84
100
AcDbEntity
  8
USP-GEO
100
AcDbPolyline
 90
       12
 70
   129
 43
0.0
 10
4.248074889999944
 20
1.298174556680574
 10
4.302677395012796
 20
1.311825182933787
 10
4.329978647519222
 20
1.339126435440213
 10
4.343629273772437
 20
1.380078314199852
 10
4.329978647519222
 20
1.434680819212706
 10
4.302677395012796
 20
1.461982071719132
 10
4.248074889999944
 20
1.475632697972345
 10
4.207123011240303
 20
1.461982071719132
 10
4.179821758733877
 20
1.434680819212706
 10
4.166171132480664
 20
1.380078314199852
 10
4.179821758733877
 20
1.339126435440213
 10
4.207123011240303
 20
1.311825182933787
  0
LWPOLYLINE
  5
85
100
AcDbEntity
  8
USP-GEO
100
AcDbPolyline
 90
        2
 70
   128
 43
0.0
 10
4.302677395012796
 20
1.311825182933787
 10
4.248074889999944
 20
1.298174556680574
  0
LWPOLYLINE
  5
86
100
AcDbEntity
  8
USP-GEO
100
AcDbPolyline
 90
       12
 70
   128
 43
0.0
 10
4.248074889999944
 20
2.801108507159346
 10
4.207123011240303
 20
2.814759133412559
 10
4.179821758733877
 20
2.842060385918985
 10
4.166171132480664
 20
2.883012264678624
 10
4.179821758733877
 20
2.937614769691478
 10
4.207123011240303
 20
2.964916022197904
 10
4.248074889999944
 20
2.978566648451117
 10
4.302677395012796
 20
2.964916022197904
 10
4.329978647519222
 20
2.937614769691478
 10
4.343629273772437
 20
2.883012264678624
 10
4.329978647519222
 20
2.842060385918985
 10
4.302677395012796
 20
2.814759133412559
  0
LWPOLYLINE
  5
87
100
AcDbEntity
  8
USP-GEO
100
AcDbPolyline
 90
        2
 70
   129
 43
0.0
 10
4.248074889999944
 20
2.801108507159346
 10
4.302677395012796
 20
2.814759133412559
  0
LWPOLYLINE
  5
88
100
AcDbEntity
  8
USP-GEO
100
AcDbPolyline
 90
        5
 70
   128
 43
0.0
 10
3.783953597390695
 20
4.577054982702382
 10
3.838556102403549
 20
4.577054982702382
 10
3.838556102403549
 20
4.467849972676676
 10
3.838556102403549
 20
4.385946215157396
 10
3.838556102403549
 20
4.331343710144544
  0
LWPOLYLINE
  5
89
100
AcDbEntity
  8
USP-GEO
100
AcDbPolyline
 90
        5
 70
   128
 43
0.0
 10
3.783953597390695
 20
4.331343710144544
 10
3.838556102403549
 20
4.331343710144544
 10
3.838556102403549
 20
4.249439952625264
 10
3.838556102403549
 20
4.098600532527258
 10
3.838556102403549
 20
3.934793017488701
  0
LWPOLYLINE
  5
8A
100
AcDbEntity
  8
USP-GEO
100
AcDbPolyline
 90
        5
 70
   128
 43
0.0
 10
3.838556102403549
 20
3.484322351132666
 10
3.93411048617604
 20
3.579876734905157
 10
3.975062364935681
 20
3.730033623690504
 10
3.93411048617604
 20
3.893841138729062
 10
3.838556102403549
 20
3.97574489624834
  0
LWPOLYLINE
  5
8B
100
AcDbEntity
  8
USP-GEO
100
AcDbPolyline
 90
        7
 70
   128
 43
0.0
 10
3.893158607416401
 20
3.784636128703356
 10
3.906809233669614
 20
3.784636128703356
 10
3.906809233669614
 20
3.75733487619693
 10
3.906809233669614
 20
3.730033623690504
 10
3.906809233669614
 20
3.702732371184076
 10
3.906809233669614
 20
3.67543111867765
 10
3.893158607416401
 20
3.67543111867765
  0
LWPOLYLINE
  5
8C
100
AcDbEntity
  8
USP-GEO
100
AcDbPolyline
 90
       16
 70
   129
 43
0.0
 10
3.893158607416401
 20
3.67543111867765
 10
3.893158607416401
 20
3.702732371184076
 10
3.893158607416401
 20
3.730033623690504
 10
3.893158607416401
 20
3.75733487619693
 10
3.893158607416401
 20
3.784636128703356
 10
3.906809233669614
 20
3.798286754956569
 10
3.920459859922827
 20
3.811937381209782
 10
3.93411048617604
 20
3.798286754956569
 10
3.947761112429255
 20
3.784636128703356
 10
3.961411738682468
 20
3.75733487619693
 10
3.961411738682468
 20
3.730033623690504
 10
3.961411738682468
 20
3.702732371184076
 10
3.947761112429255
 20
3.67543111867765
 10
3.93411048617604
 20
3.661780492424437
 10
3.920459859922827
 20
3.648129866171224
 10
3.906809233669614
 20
3.661780492424437
  0
LWPOLYLINE
  5
8D
100
AcDbEntity
  8
USP-GEO
100
AcDbPolyline
 90
       12
 70
   128
 43
0.0
 10
4.248074889999944
 20
3.798286754956569
 10
4.207123011240303
 20
3.811937381209782
 10
4.179821758733877
 20
3.839238633716208
 10
4.166171132480664
 20
3.893841138729062
 10
4.179821758733877
 20
3.934793017488701
 10
4.207123011240303
 20
3.962094269995127
 10
4.248074889999944
 20
3.97574489624834
 10
4.302677395012796
 20
3.962094269995127
 10
4.329978647519222
 20
3.934793017488701
 10
4.343629273772437
 20
3.893841138729062
 10
4.329978647519222
 20
3.839238633716208
 10
4.302677395012796
 20
3.811937381209782
  0
LWPOLYLINE
  5
8E
100
AcDbEntity
  8
USP-GEO
100
AcDbPolyline
 90
        2
 70
   129
 43
0.0
 10
4.248074889999944
 20
3.798286754956569
 10
4.302677395012796
 20
3.811937381209782
  0
LWPOLYLINE
  5
8F
100
AcDbEntity
  8
USP-GEO
100
AcDbPolyline
 90
       12
 70
   128
 43
0.0
 10
4.248074889999944
 20
4.795465002753792
 10
4.207123011240303
 20
4.809115629007005
 10
4.179821758733877
 20
4.850750039079306
 10
4.166171132480664
 20
4.891701917838945
 10
4.179821758733877
 20
4.932653796598585
 10
4.207123011240303
 20
4.973605675358225
 10
4.248074889999944
 20
4.973605675358225
 10
4.302677395012796
 20
4.973605675358225
 10
4.329978647519222
 20
4.932653796598585
 10
4.343629273772437
 20
4.891701917838945
 10
4.329978647519222
 20
4.850750039079306
 10
4.302677395012796
 20
4.809115629007005
  0
LWPOLYLINE
  5
90
100
AcDbEntity
  8
USP-GEO
100
AcDbPolyline
 90
        2
 70
   129
 43
0.0
 10
4.248074889999944
 20
4.795465002753792
 10
4.302677395012796
 20
4.809115629007005
  0
LWPOLYLINE
  5
91
100
AcDbEntity
  8
USP-GEO
100
AcDbPolyline
 90
        2
 70
   129
 43
0.0
 10
5.327156895316447
 20
3.934793017488701
 10
5.327156895316447
 20
2.951265395944691
  0
LWPOLYLINE
  5
92
100
AcDbEntity
  8
USP-GEO
100
AcDbPolyline
 90
       12
 70
   128
 43
0.0
 10
4.999541865239329
 20
2.30900343073101
 10
5.04049374399897
 20
2.336304683237436
 10
5.054144370252183
 20
2.39090718825029
 10
5.04049374399897
 20
2.431859067009929
 10
4.999541865239329
 20
2.459160319516355
 10
4.95858998647969
 20
2.472810945769568
 10
4.917638107720051
 20
2.459160319516355
 10
4.87668622896041
 20
2.431859067009929
 10
4.87668622896041
 20
2.39090718825029
 10
4.87668622896041
 20
2.336304683237436
 10
4.917638107720051
 20
2.30900343073101
 10
4.95858998647969
 20
2.295352804477797
  0
LWPOLYLINE
  5
93
100
AcDbEntity
  8
USP-GEO
100
AcDbPolyline
 90
        3
 70
   128
 43
0.0
 10
4.849384976453984
 20
1.653090839264116
 10
5.108746875265035
 20
2.049641531919959
 10
5.272554390303593
 20
2.486461572022781
  0
LWPOLYLINE
  5
94
100
AcDbEntity
  8
USP-GEO
100
AcDbPolyline
 90
        2
 70
   129
 43
0.0
 10
4.95858998647969
 20
2.295352804477797
 10
4.999541865239329
 20
2.30900343073101
  0
LWPOLYLINE
  5
95
100
AcDbEntity
  8
USP-GEO
100
AcDbPolyline
 90
        2
 70
   129
 43
0.0
 10
5.327156895316447
 20
2.951265395944691
 10
5.272554390303593
 20
2.486461572022781
  0
LWPOLYLINE
  5
96
100
AcDbEntity
  8
USP-GEO
100
AcDbPolyline
 90
        2
 70
   129
 43
0.0
 10
5.613820046633923
 20
4.331343710144544
 10
5.463663157848579
 20
4.249439952625264
  0
LWPOLYLINE
  5
97
100
AcDbEntity
  8
USP-GEO
100
AcDbPolyline
 90
        2
 70
   129
 43
0.0
 10
5.463663157848579
 20
5.055509432877504
 10
5.518265662861432
 20
5.055509432877504
  0
LWPOLYLINE
  5
98
100
AcDbEntity
  8
USP-GEO
100
AcDbPolyline
 90
       12
 70
   128
 43
0.0
 10
5.463663157848579
 20
5.055509432877504
 10
5.42271127908894
 20
5.055509432877504
 10
5.395410026582512
 20
5.096461311637143
 10
5.381759400329299
 20
5.137413190396783
 10
5.395410026582512
 20
5.178365069156423
 10
5.42271127908894
 20
5.219316947916062
 10
5.463663157848579
 20
5.232967574169275
 10
5.518265662861432
 20
5.219316947916062
 10
5.545566915367858
 20
5.178365069156423
 10
5.559217541621071
 20
5.137413190396783
 10
5.545566915367858
 20
5.096461311637143
 10
5.518265662861432
 20
5.055509432877504
  0
LWPOLYLINE
  5
99
100
AcDbEntity
  8
USP-GEO
100
AcDbPolyline
 90
       12
 70
   128
 43
0.0
 10
4.95858998647969
 20
4.304042457638118
 10
4.917638107720051
 20
4.317693083891331
 10
4.87668622896041
 20
4.344994336397757
 10
4.87668622896041
 20
4.385946215157396
 10
4.87668622896041
 20
4.44054872017025
 10
4.917638107720051
 20
4.467849972676676
 10
4.95858998647969
 20
4.481500598929889
 10
4.999541865239329
 20
4.467849972676676
 10
5.04049374399897
 20
4.44054872017025
 10
5.054144370252183
 20
4.385946215157396
 10
5.04049374399897
 20
4.344994336397757
 10
4.999541865239329
 20
4.317693083891331
  0
LWPOLYLINE
  5
9A
100
AcDbEntity
  8
USP-GEO
100
AcDbPolyline
 90
        2
 70
   129
 43
0.0
 10
4.95858998647969
 20
4.304042457638118
 10
4.999541865239329
 20
4.317693083891331
  0
LWPOLYLINE
  5
9B
100
AcDbEntity
  8
USP-GEO
100
AcDbPolyline
 90
        3
 70
   128
 43
0.0
 10
5.327156895316447
 20
3.934793017488701
 10
5.354458147822873
 20
4.098600532527258
 10
5.463663157848579
 20
4.249439952625264
  0
LWPOLYLINE
  5
9C
100
AcDbEntity
  8
USP-GEO
100
AcDbPolyline
 90
        2
 70
   128
 43
0.0
 10
5.76397693541927
 20
4.467849972676676
 10
5.777627561672483
 20
4.577054982702382
  0
LWPOLYLINE
  5
9D
100
AcDbEntity
  8
USP-GEO
100
AcDbPolyline
 90
        4
 70
   128
 43
0.0
 10
5.777627561672483
 20
4.577054982702382
 10
5.76397693541927
 20
4.467849972676676
 10
5.695723804153201
 20
4.385946215157396
 10
5.613820046633923
 20
4.331343710144544
  0
LWPOLYLINE
  5
9E
100
AcDbEntity
  8
USP-GEO
100
AcDbPolyline
 90
        2
 70
   129
 43
0.0
 10
5.777627561672483
 20
5.492329472980325
 10
5.777627561672483
 20
4.577054982702382
  0
LWPOLYLINE
  5
9F
100
AcDbEntity
  8
USP-GEO
100
AcDbPolyline
 90
       12
 70
   129
 43
0.0
 10
1.461982071719132
 20
5.84792828687653
 10
1.448331445465919
 20
5.888880165636169
 10
1.461982071719132
 20
5.929832044395809
 10
1.489283324225558
 20
5.970783923155448
 10
1.543885829238412
 20
5.984434549408661
 10
1.584837707998051
 20
5.970783923155448
 10
1.612138960504477
 20
5.929832044395809
 10
1.62578958675769
 20
5.888880165636169
 10
1.612138960504477
 20
5.84792828687653
 10
1.584837707998051
 20
5.80697640811689
 10
1.543885829238412
 20
5.80697640811689
 10
1.489283324225558
 20
5.80697640811689
  0
LWPOLYLINE
  5
A0
100
AcDbEntity
  8
USP-GEO
100
AcDbPolyline
 90
        2
 70
   129
 43
0.0
 10
1.543885829238412
 20
6.981612797205883
 10
1.489283324225558
 20
6.96796217095267
  0
LWPOLYLINE
  5
A1
100
AcDbEntity
  8
USP-GEO
100
AcDbPolyline
 90
       12
 70
   128
 43
0.0
 10
1.543885829238412
 20
6.981612797205883
 10
1.584837707998051
 20
6.96796217095267
 10
1.612138960504477
 20
6.940660918446244
 10
1.62578958675769
 20
6.886058413433392
 10
1.612138960504477
 20
6.845106534673753
 10
1.584837707998051
 20
6.817805282167327
 10
1.543885829238412
 20
6.804154655914114
 10
1.489283324225558
 20
6.817805282167327
 10
1.461982071719132
 20
6.845106534673753
 10
1.448331445465919
 20
6.886058413433392
 10
1.461982071719132
 20
6.940660918446244
 10
1.489283324225558
 20
6.96796217095267
  0
LWPOLYLINE
  5
A2
100
AcDbEntity
  8
USP-GEO
100
AcDbPolyline
 90
       12
 70
   128
 43
0.0
 10
1.939753990581595
 20
5.916181418142596
 10
1.939753990581595
 20
6.0253864281683
 10
1.939753990581595
 20
6.216495195713285
 10
1.939753990581595
 20
6.421937120824144
 10
1.939753990581595
 20
6.613045888369128
 10
1.939753990581595
 20
6.722250898394833
 10
2.00800712184766
 20
6.722250898394833
 10
2.00800712184766
 20
6.613045888369128
 10
2.00800712184766
 20
6.421937120824144
 10
2.00800712184766
 20
6.216495195713285
 10
2.00800712184766
 20
6.0253864281683
 10
2.00800712184766
 20
5.916181418142596
  0
LWPOLYLINE
  5
A3
100
AcDbEntity
  8
USP-GEO
100
AcDbPolyline
 90
        5
 70
   128
 43
0.0
 10
1.939753990581595
 20
6.572094009609489
 10
1.857850233062315
 20
6.476539625836997
 10
1.816898354302676
 20
6.326382737051652
 10
1.857850233062315
 20
6.161892690700432
 10
1.939753990581595
 20
6.06633830692794
  0
LWPOLYLINE
  5
A4
100
AcDbEntity
  8
USP-GEO
100
AcDbPolyline
 90
        7
 70
   128
 43
0.0
 10
1.885151485568741
 20
6.257447074472925
 10
1.885151485568741
 20
6.271097700726138
 10
1.885151485568741
 20
6.285430858292012
 10
1.885151485568741
 20
6.326382737051652
 10
1.885151485568741
 20
6.353683989558078
 10
1.885151485568741
 20
6.380985242064504
 10
1.885834016881402
 20
6.380985242064504
  0
LWPOLYLINE
  5
A5
100
AcDbEntity
  8
USP-GEO
100
AcDbPolyline
 90
       16
 70
   129
 43
0.0
 10
1.885151485568741
 20
6.271097700726138
 10
1.871500859315528
 20
6.243796448219711
 10
1.857850233062315
 20
6.243796448219711
 10
1.844199606809102
 20
6.243796448219711
 10
1.830548980555889
 20
6.271097700726138
 10
1.830548980555889
 20
6.285430858292012
 10
1.830548980555889
 20
6.326382737051652
 10
1.830548980555889
 20
6.353683989558078
 10
1.830548980555889
 20
6.380985242064504
 10
1.844199606809102
 20
6.394635868317718
 10
1.857850233062315
 20
6.394635868317718
 10
1.871500859315528
 20
6.394635868317718
 10
1.885151485568741
 20
6.380985242064504
 10
1.898802111821954
 20
6.353683989558078
 10
1.898802111821954
 20
6.326382737051652
 10
1.898802111821954
 20
6.285430858292012
  0
LWPOLYLINE
  5
A6
100
AcDbEntity
  8
USP-GEO
100
AcDbPolyline
 90
        4
 70
   128
 43
0.0
 10
2.00800712184766
 20
6.96796217095267
 10
2.00800712184766
 20
7.17340409606353
 10
1.939753990581595
 20
7.17340409606353
 10
1.939753990581595
 20
6.96796217095267
  0
LWPOLYLINE
  5
A7
100
AcDbEntity
  8
USP-GEO
100
AcDbPolyline
 90
        8
 70
   128
 43
0.0
 10
2.00800712184766
 20
6.722250898394833
 10
2.00800712184766
 20
6.776853403407686
 10
2.00800712184766
 20
6.858757160926966
 10
2.00800712184766
 20
6.96796217095267
 10
1.939753990581595
 20
6.96796217095267
 10
1.939753990581595
 20
6.858757160926966
 10
1.939753990581595
 20
6.776853403407686
 10
1.939753990581595
 20
6.722250898394833
  0
LWPOLYLINE
  5
A8
100
AcDbEntity
  8
USP-GEO
100
AcDbPolyline
 90
       10
 70
   128
 43
0.0
 10
3.783953597390695
 20
6.776853403407686
 10
3.783953597390695
 20
6.681299019635194
 10
3.783953597390695
 20
6.599395262115915
 10
3.783953597390695
 20
6.544792757103063
 10
3.838556102403549
 20
6.544792757103063
 10
3.838556102403549
 20
6.421937120824144
 10
3.838556102403549
 20
6.243796448219711
 10
3.838556102403549
 20
6.0253864281683
 10
3.838556102403549
 20
5.84792828687653
 10
3.838556102403549
 20
5.725072650597611
  0
LWPOLYLINE
  5
A9
100
AcDbEntity
  8
USP-GEO
100
AcDbPolyline
 90
        5
 70
   128
 43
0.0
 10
3.783953597390695
 20
6.776853403407686
 10
3.838556102403549
 20
6.776853403407686
 10
3.838556102403549
 20
6.681299019635194
 10
3.838556102403549
 20
6.599395262115915
 10
3.838556102403549
 20
6.544792757103063
  0
LWPOLYLINE
  5
AA
100
AcDbEntity
  8
USP-GEO
100
AcDbPolyline
 90
        5
 70
   128
 43
0.0
 10
3.838556102403549
 20
5.888880165636169
 10
3.93411048617604
 20
5.970783923155448
 10
3.975062364935681
 20
6.134591438194006
 10
3.93411048617604
 20
6.285430858292012
 10
3.838556102403549
 20
6.380985242064504
  0
LWPOLYLINE
  5
AB
100
AcDbEntity
  8
USP-GEO
100
AcDbPolyline
 90
        7
 70
   128
 43
0.0
 10
3.893158607416401
 20
6.079988933181153
 10
3.906809233669614
 20
6.079988933181153
 10
3.906809233669614
 20
6.107290185687579
 10
3.906809233669614
 20
6.134591438194006
 10
3.906809233669614
 20
6.161892690700432
 10
3.906809233669614
 20
6.189193943206859
 10
3.893158607416401
 20
6.189193943206859
  0
LWPOLYLINE
  5
AC
100
AcDbEntity
  8
USP-GEO
100
AcDbPolyline
 90
       16
 70
   129
 43
0.0
 10
3.893158607416401
 20
6.161892690700432
 10
3.893158607416401
 20
6.189193943206859
 10
3.906809233669614
 20
6.202844569460072
 10
3.920459859922827
 20
6.216495195713285
 10
3.93411048617604
 20
6.202844569460072
 10
3.947761112429255
 20
6.189193943206859
 10
3.961411738682468
 20
6.161892690700432
 10
3.961411738682468
 20
6.134591438194006
 10
3.961411738682468
 20
6.107290185687579
 10
3.947761112429255
 20
6.079988933181153
 10
3.93411048617604
 20
6.06633830692794
 10
3.920459859922827
 20
6.052687680674727
 10
3.906809233669614
 20
6.06633830692794
 10
3.893158607416401
 20
6.079988933181153
 10
3.893158607416401
 20
6.107290185687579
 10
3.893158607416401
 20
6.134591438194006
  0
LWPOLYLINE
  5
AD
100
AcDbEntity
  8
USP-GEO
100
AcDbPolyline
 90
       12
 70
   129
 43
0.0
 10
4.166171132480664
 20
5.888880165636169
 10
4.179821758733877
 20
5.929832044395809
 10
4.207123011240303
 20
5.970783923155448
 10
4.248074889999944
 20
5.984434549408661
 10
4.302677395012796
 20
5.970783923155448
 10
4.329978647519222
 20
5.929832044395809
 10
4.343629273772437
 20
5.888880165636169
 10
4.329978647519222
 20
5.84792828687653
 10
4.302677395012796
 20
5.80697640811689
 10
4.248074889999944
 20
5.80697640811689
 10
4.207123011240303
 20
5.80697640811689
 10
4.179821758733877
 20
5.84792828687653
  0
LWPOLYLINE
  5
AE
100
AcDbEntity
  8
USP-GEO
100
AcDbPolyline
 90
        2
 70
   128
 43
0.0
 10
4.302677395012796
 20
5.80697640811689
 10
4.248074889999944
 20
5.80697640811689
  0
LWPOLYLINE
  5
AF
100
AcDbEntity
  8
USP-GEO
100
AcDbPolyline
 90
        2
 70
   129
 43
0.0
 10
3.783953597390695
 20
6.776853403407686
 10
3.783953597390695
 20
7.17340409606353
  0
LWPOLYLINE
  5
B0
100
AcDbEntity
  8
USP-GEO
100
AcDbPolyline
 90
        2
 70
   129
 43
0.0
 10
3.783953597390695
 20
7.17340409606353
 10
3.838556102403549
 20
7.17340409606353
  0
LWPOLYLINE
  5
B1
100
AcDbEntity
  8
USP-GEO
100
AcDbPolyline
 90
       12
 70
   129
 43
0.0
 10
4.166171132480664
 20
6.886058413433392
 10
4.179821758733877
 20
6.940660918446244
 10
4.207123011240303
 20
6.96796217095267
 10
4.248074889999944
 20
6.981612797205883
 10
4.302677395012796
 20
6.96796217095267
 10
4.329978647519222
 20
6.940660918446244
 10
4.343629273772437
 20
6.886058413433392
 10
4.329978647519222
 20
6.845106534673753
 10
4.302677395012796
 20
6.817805282167327
 10
4.248074889999944
 20
6.804154655914114
 10
4.207123011240303
 20
6.817805282167327
 10
4.179821758733877
 20
6.845106534673753
  0
LWPOLYLINE
  5
B2
100
AcDbEntity
  8
USP-GEO
100
AcDbPolyline
 90
        2
 70
   128
 43
0.0
 10
4.302677395012796
 20
6.817805282167327
 10
4.248074889999944
 20
6.804154655914114
  0
LWPOLYLINE
  5
B3
100
AcDbEntity
  8
USP-GEO
100
AcDbPolyline
 90
       12
 70
   129
 43
0.0
 10
5.395410026582512
 20
6.940660918446244
 10
5.42271127908894
 20
6.96796217095267
 10
5.463663157848579
 20
6.981612797205883
 10
5.518265662861432
 20
6.96796217095267
 10
5.545566915367858
 20
6.940660918446244
 10
5.559217541621071
 20
6.886058413433392
 10
5.545566915367858
 20
6.845106534673753
 10
5.518265662861432
 20
6.817805282167327
 10
5.463663157848579
 20
6.804154655914114
 10
5.42271127908894
 20
6.817805282167327
 10
5.395410026582512
 20
6.845106534673753
 10
5.381759400329299
 20
6.886058413433392
  0
LWPOLYLINE
  5
B4
100
AcDbEntity
  8
USP-GEO
100
AcDbPolyline
 90
        2
 70
   128
 43
0.0
 10
5.436361905342153
 20
6.421937120824144
 10
5.613820046633923
 20
6.544792757103063
  0
LWPOLYLINE
  5
B5
100
AcDbEntity
  8
USP-GEO
100
AcDbPolyline
 90
        2
 70
   128
 43
0.0
 10
5.518265662861432
 20
6.817805282167327
 10
5.463663157848579
 20
6.804154655914114
  0
LWPOLYLINE
  5
B6
100
AcDbEntity
  8
USP-GEO
100
AcDbPolyline
 90
       12
 70
   129
 43
0.0
 10
4.87668622896041
 20
6.06633830692794
 10
4.917638107720051
 20
6.0253864281683
 10
4.95858998647969
 20
6.0253864281683
 10
4.999541865239329
 20
6.0253864281683
 10
5.04049374399897
 20
6.06633830692794
 10
5.054144370252183
 20
6.107290185687579
 10
5.04049374399897
 20
6.148242064447219
 10
4.999541865239329
 20
6.189193943206859
 10
4.95858998647969
 20
6.202844569460072
 10
4.917638107720051
 20
6.189193943206859
 10
4.87668622896041
 20
6.148242064447219
 10
4.87668622896041
 20
6.107290185687579
  0
LWPOLYLINE
  5
B7
100
AcDbEntity
  8
USP-GEO
100
AcDbPolyline
 90
        2
 70
   128
 43
0.0
 10
4.999541865239329
 20
6.0253864281683
 10
4.95858998647969
 20
6.0253864281683
  0
LWPOLYLINE
  5
B8
100
AcDbEntity
  8
USP-GEO
100
AcDbPolyline
 90
        2
 70
   128
 43
0.0
 10
5.695723804153201
 20
5.670470145584758
 10
5.613820046633923
 20
5.725072650597611
  0
ENDBLK
  5
BA
100
AcDbEntity
  8
0
100
AcDbBlockEnd
  0
BLOCK
  5
E5
100
AcDbEntity
  8
0
100
AcDbBlockBegin
  2
HUS177_S
 70
     0
 10
0.0
 20
0.0
 30
0.0
  3
HUS177_S
  1

  0
LWPOLYLINE
  5
BD
100
AcDbEntity
  8
USP-GEO
100
AcDbPolyline
 90
       32
 70
   128
 43
0.0
 10
3.37375227848164
 20
0.068253131266065
 10
3.37375227848164
 20
0.0
 10
3.37375227848164
 20
0.068253131266065
 10
3.37375227848164
 20
0.0955543837724928
 10
3.360101652228427
 20
0.1228556362789188
 10
3.346451025975212
 20
0.1501568887853448
 10
2.062609626860512
 20
1.653090839264116
 10
1.802565196736801
 20
2.049641531919959
 10
1.638757681698243
 20
2.486461572022781
 10
1.58415517668539
 20
2.951265395944691
 10
1.58415517668539
 20
3.934793017488701
 10
1.556853924178963
 20
4.098600532527258
 10
1.447648914153258
 20
4.249439952625264
 10
1.297492025367913
 20
4.331343710144544
 10
1.215588267848634
 20
4.385946215157396
 10
1.147335136582568
 20
4.467849972676676
 10
1.133684510329355
 20
4.577054982702382
 10
1.133684510329355
 20
5.670470145584758
 10
1.147335136582568
 20
5.779675155610463
 10
1.215588267848634
 20
5.861578913129743
 10
1.297492025367913
 20
5.916181418142596
 10
1.474950166659684
 20
6.0253864281683
 10
1.570504550432176
 20
6.216495195713285
 10
1.570504550432176
 20
6.421937120824144
 10
1.474950166659684
 20
6.613045888369128
 10
1.297492025367913
 20
6.722250898394833
 10
1.215588267848634
 20
6.776853403407686
 10
1.147335136582568
 20
6.858757160926966
 10
1.133684510329355
 20
6.96796217095267
 10
1.133684510329355
 20
7.17340409606353
 10
0.0682531312660659
 20
7.17340409606353
 10
0.0682531312660659
 20
6.96796217095267
  0
LWPOLYLINE
  5
BE
100
AcDbEntity
  8
USP-GEO
100
AcDbPolyline
 90
        6
 70
   128
 43
0.0
 10
0.0
 20
5.670470145584758
 10
0.0
 20
4.577054982702382
 10
0.0682531312660659
 20
4.577054982702382
 10
0.0682531312660659
 20
4.467849972676676
 10
0.0682531312660659
 20
4.385946215157396
 10
0.0682531312660659
 20
4.331343710144544
  0
LWPOLYLINE
  5
BF
100
AcDbEntity
  8
USP-GEO
100
AcDbPolyline
 90
        6
 70
   128
 43
0.0
 10
0.0682531312660659
 20
4.577054982702382
 10
0.0682531312660659
 20
5.670470145584758
 10
0.0
 20
5.670470145584758
 10
0.0
 20
5.779675155610463
 10
0.0
 20
5.861578913129743
 10
0.0
 20
5.916181418142596
  0
LWPOLYLINE
  5
C0
100
AcDbEntity
  8
USP-GEO
100
AcDbPolyline
 90
        2
 70
   128
 43
0.0
 10
1.133684510329355
 20
4.577054982702382
 10
1.133684510329355
 20
5.670470145584758
  0
LWPOLYLINE
  5
C1
100
AcDbEntity
  8
USP-GEO
100
AcDbPolyline
 90
        7
 70
   128
 43
0.0
 10
1.570504550432176
 20
6.216495195713285
 10
1.570504550432176
 20
6.0253864281683
 10
1.474950166659684
 20
5.84792828687653
 10
1.297492025367913
 20
5.725072650597611
 10
1.215588267848634
 20
5.670470145584758
 10
1.147335136582568
 20
5.588566388065479
 10
1.133684510329355
 20
5.492329472980325
  0
LWPOLYLINE
  5
C2
100
AcDbEntity
  8
USP-GEO
100
AcDbPolyline
 90
       44
 70
   128
 43
0.0
 10
0.3822175350899695
 20
0.0
 10
0.3822175350899695
 20
0.068253131266065
 10
0.3685669088367565
 20
0.0955543837724928
 10
0.3685669088367565
 20
0.1228556362789188
 10
0.3549162825835426
 20
0.1501568887853448
 10
0.0682531312660659
 20
0.4921050764283362
 10
0.0
 20
0.4921050764283362
 10
0.0
 20
1.653090839264116
 10
0.0
 20
2.049641531919959
 10
0.0
 20
2.486461572022781
 10
0.0
 20
2.951265395944691
 10
0.0
 20
3.934793017488701
 10
0.0
 20
4.098600532527258
 10
0.0
 20
4.249439952625264
 10
0.0
 20
4.331343710144544
 10
0.0
 20
4.385946215157396
 10
0.0
 20
4.467849972676676
 10
0.0
 20
4.577054982702382
 10
0.0
 20
5.670470145584758
 10
0.0
 20
5.779675155610463
 10
0.0
 20
5.861578913129743
 10
0.0
 20
5.916181418142596
 10
0.0
 20
6.0253864281683
 10
0.0
 20
6.216495195713285
 10
0.0
 20
6.421937120824144
 10
0.0
 20
6.613045888369128
 10
0.0
 20
6.722250898394833
 10
0.0
 20
6.776853403407686
 10
0.0
 20
6.858757160926966
 10
0.0
 20
6.96796217095267
 10
0.0
 20
7.17340409606353
 10
0.0
 20
6.96796217095267
 10
0.0
 20
6.858757160926966
 10
0.0
 20
6.776853403407686
 10
0.0
 20
6.722250898394833
 10
0.0
 20
6.613045888369128
 10
0.0
 20
6.421937120824144
 10
0.0
 20
6.216495195713285
 10
0.0
 20
6.0253864281683
 10
0.0
 20
5.916181418142596
 10
0.0682531312660659
 20
5.916181418142596
 10
0.0682531312660659
 20
5.861578913129743
 10
0.0682531312660659
 20
5.779675155610463
 10
0.0682531312660659
 20
5.670470145584758
  0
LWPOLYLINE
  5
C3
100
AcDbEntity
  8
USP-GEO
100
AcDbPolyline
 90
       28
 70
   128
 43
0.0
 10
0.3549162825835426
 20
0.1501568887853448
 10
0.0682531312660659
 20
0.4921050764283362
 10
0.0682531312660659
 20
1.653090839264116
 10
0.0682531312660659
 20
2.049641531919959
 10
0.0682531312660659
 20
2.486461572022781
 10
0.0682531312660659
 20
2.951265395944691
 10
0.0682531312660659
 20
3.934793017488701
 10
0.0682531312660659
 20
4.098600532527258
 10
0.0682531312660659
 20
4.249439952625264
 10
0.0682531312660659
 20
4.331343710144544
 10
0.0682531312660659
 20
4.385946215157396
 10
0.0682531312660659
 20
4.467849972676676
 10
0.0682531312660659
 20
4.577054982702382
 10
0.0682531312660659
 20
5.670470145584758
 10
0.0682531312660659
 20
5.779675155610463
 10
0.0682531312660659
 20
5.861578913129743
 10
0.0682531312660659
 20
5.916181418142596
 10
0.0682531312660659
 20
6.0253864281683
 10
0.0682531312660659
 20
6.216495195713285
 10
0.0682531312660659
 20
6.421937120824144
 10
0.0682531312660659
 20
6.613045888369128
 10
0.0682531312660659
 20
6.722250898394833
 10
0.0682531312660659
 20
6.776853403407686
 10
0.0682531312660659
 20
6.858757160926966
 10
0.0682531312660659
 20
6.96796217095267
 10
0.0682531312660659
 20
7.17340409606353
 10
1.133684510329355
 20
7.17340409606353
 10
1.133684510329355
 20
6.96796217095267
  0
LWPOLYLINE
  5
C4
100
AcDbEntity
  8
USP-GEO
100
AcDbPolyline
 90
        2
 70
   129
 43
0.0
 10
3.37375227848164
 20
0.0
 10
0.3822175350899695
 20
0.0
  0
LWPOLYLINE
  5
C5
100
AcDbEntity
  8
USP-GEO
100
AcDbPolyline
 90
        2
 70
   128
 43
0.0
 10
3.37375227848164
 20
0.054602505012852
 10
0.3822175350899695
 20
0.054602505012852
  0
TEXT
  5
C6
100
AcDbEntity
  8
USP-TXT
100
AcDbText
 10
-0.2763860592527019
 20
-1.285448780549252
 30
0.0
 40
0.203125
  1
HUS177 - LEFT SIDE VIEW
 72
     1
 11
1.991843107413965
 21
-1.285448780549252
 31
0.0
100
AcDbText
  0
LWPOLYLINE
  5
C7
100
AcDbEntity
  8
USP-GEO
100
AcDbPolyline
 90
        4
 70
   129
 43
0.0
 10
0.0682531312660659
 20
0.4921050764283362
 10
0.0682531312660659
 20
1.653090839264116
 10
0.0
 20
1.653090839264116
 10
0.0
 20
0.4921050764283362
  0
LWPOLYLINE
  5
C8
100
AcDbEntity
  8
USP-GEO
100
AcDbPolyline
 90
       12
 70
   129
 43
0.0
 10
0.9152744902779446
 20
0.9152744902779446
 10
0.9425757427843706
 20
0.7924188539990258
 10
1.038130126556862
 20
0.696864470226533
 10
1.160985762835781
 20
0.669563217720107
 10
1.2838413991147
 20
0.696864470226533
 10
1.379395782887193
 20
0.7924188539990258
 10
1.406697035393619
 20
0.9152744902779446
 10
1.379395782887193
 20
1.038130126556863
 10
1.2838413991147
 20
1.133684510329354
 10
1.160985762835781
 20
1.160985762835782
 10
1.038130126556862
 20
1.133684510329354
 10
0.9425757427843706
 20
1.038130126556863
  0
LWPOLYLINE
  5
C9
100
AcDbEntity
  8
USP-GEO
100
AcDbPolyline
 90
        2
 70
   128
 43
0.0
 10
0.3822175350899695
 20
0.068253131266065
 10
0.3822175350899695
 20
0.0
  0
LWPOLYLINE
  5
CA
100
AcDbEntity
  8
USP-GEO
100
AcDbPolyline
 90
       16
 70
   129
 43
0.0
 10
1.270190772861487
 20
0.8470213590118778
 10
1.242889520355061
 20
0.8606719852650908
 10
1.229238894101847
 20
0.8879732377715185
 10
1.229238894101847
 20
0.9152744902779446
 10
1.229238894101847
 20
0.9425757427843706
 10
1.242889520355061
 20
0.9698769952907966
 10
1.270190772861487
 20
0.9835276215440096
 10
1.297492025367913
 20
0.9971782477972226
 10
1.32479327787434
 20
0.9835276215440096
 10
1.352094530380766
 20
0.9698769952907966
 10
1.365745156633979
 20
0.9425757427843706
 10
1.365745156633979
 20
0.9152744902779446
 10
1.365745156633979
 20
0.8879732377715185
 10
1.352094530380766
 20
0.8606719852650908
 10
1.32479327787434
 20
0.8470213590118778
 10
1.297492025367913
 20
0.8333707327586648
  0
LWPOLYLINE
  5
CB
100
AcDbEntity
  8
USP-GEO
100
AcDbPolyline
 90
        3
 70
   128
 43
0.0
 10
1.311142651621127
 20
0.8743226115183038
 10
1.270190772861487
 20
0.9152744902779446
 10
1.229238894101847
 20
0.9289251165311576
  0
LWPOLYLINE
  5
CC
100
AcDbEntity
  8
USP-GEO
100
AcDbPolyline
 90
        9
 70
   128
 43
0.0
 10
1.284523930427361
 20
0.8470213590118778
 10
1.2838413991147
 20
0.8470213590118778
 10
1.311142651621127
 20
0.8606719852650908
 10
1.32479327787434
 20
0.8879732377715185
 10
1.32479327787434
 20
0.9152744902779446
 10
1.32479327787434
 20
0.9425757427843706
 10
1.311142651621127
 20
0.9698769952907966
 10
1.2838413991147
 20
0.9835276215440096
 10
1.284523930427361
 20
0.9835276215440096
  0
LWPOLYLINE
  5
CD
100
AcDbEntity
  8
USP-GEO
100
AcDbPolyline
 90
        7
 70
   128
 43
0.0
 10
0.0682531312660659
 20
2.951265395944691
 10
0.0682531312660659
 20
3.934793017488701
 10
0.0
 20
3.934793017488701
 10
0.0
 20
2.951265395944691
 10
0.0
 20
2.486461572022781
 10
0.0
 20
2.049641531919959
 10
0.0
 20
1.653090839264116
  0
LWPOLYLINE
  5
CE
100
AcDbEntity
  8
USP-GEO
100
AcDbPolyline
 90
        5
 70
   128
 43
0.0
 10
0.0682531312660659
 20
1.653090839264116
 10
0.0682531312660659
 20
2.049641531919959
 10
0.0682531312660659
 20
2.486461572022781
 10
0.0682531312660659
 20
2.951265395944691
 10
0.0
 20
2.951265395944691
  0
LWPOLYLINE
  5
CF
100
AcDbEntity
  8
USP-GEO
100
AcDbPolyline
 90
        7
 70
   128
 43
0.0
 10
0.0
 20
4.577054982702382
 10
0.0
 20
4.467849972676676
 10
0.0
 20
4.385946215157396
 10
0.0
 20
4.331343710144544
 10
0.0
 20
4.249439952625264
 10
0.0
 20
4.098600532527258
 10
0.0
 20
3.934793017488701
  0
LWPOLYLINE
  5
D0
100
AcDbEntity
  8
USP-GEO
100
AcDbPolyline
 90
        5
 70
   128
 43
0.0
 10
0.0682531312660659
 20
3.934793017488701
 10
0.0682531312660659
 20
4.098600532527258
 10
0.0682531312660659
 20
4.249439952625264
 10
0.0682531312660659
 20
4.331343710144544
 10
0.0
 20
4.331343710144544
  0
LWPOLYLINE
  5
D1
100
AcDbEntity
  8
USP-GEO
100
AcDbPolyline
 90
        2
 70
   128
 43
0.0
 10
1.58415517668539
 20
2.951265395944691
 10
1.58415517668539
 20
3.934793017488701
  0
LWPOLYLINE
  5
D2
100
AcDbEntity
  8
USP-GEO
100
AcDbPolyline
 90
       12
 70
   129
 43
0.0
 10
1.2838413991147
 20
2.199798420705304
 10
1.160985762835781
 20
2.172497168198878
 10
1.038130126556862
 20
2.199798420705304
 10
0.9425757427843706
 20
2.295352804477797
 10
0.9152744902779446
 20
2.418208440756716
 10
0.9425757427843706
 20
2.541064077035635
 10
1.038130126556862
 20
2.636618460808128
 10
1.160985762835781
 20
2.664602244627214
 10
1.2838413991147
 20
2.636618460808128
 10
1.379395782887193
 20
2.541064077035635
 10
1.406697035393619
 20
2.418208440756716
 10
1.379395782887193
 20
2.295352804477797
  0
LWPOLYLINE
  5
D3
100
AcDbEntity
  8
USP-GEO
100
AcDbPolyline
 90
       25
 70
   128
 43
0.0
 10
1.270190772861487
 20
2.486461572022781
 10
1.297492025367913
 20
2.500112198275996
 10
1.32479327787434
 20
2.486461572022781
 10
1.352094530380766
 20
2.472810945769568
 10
1.365745156633979
 20
2.445509693263142
 10
1.365745156633979
 20
2.418208440756716
 10
1.365745156633979
 20
2.39090718825029
 10
1.352094530380766
 20
2.363605935743862
 10
1.32479327787434
 20
2.349955309490649
 10
1.297492025367913
 20
2.336304683237436
 10
1.270190772861487
 20
2.349955309490649
 10
1.242889520355061
 20
2.363605935743862
 10
1.229238894101847
 20
2.39090718825029
 10
1.229238894101847
 20
2.418208440756716
 10
1.229238894101847
 20
2.445509693263142
 10
1.242889520355061
 20
2.472810945769568
 10
1.270190772861487
 20
2.486461572022781
 10
1.2838413991147
 20
2.486461572022781
 10
1.311142651621127
 20
2.472810945769568
 10
1.32479327787434
 20
2.445509693263142
 10
1.32479327787434
 20
2.418208440756716
 10
1.32479327787434
 20
2.39090718825029
 10
1.311142651621127
 20
2.363605935743862
 10
1.2838413991147
 20
2.349955309490649
 10
1.270190772861487
 20
2.349955309490649
  0
LWPOLYLINE
  5
D4
100
AcDbEntity
  8
USP-GEO
100
AcDbPolyline
 90
        3
 70
   128
 43
0.0
 10
1.311142651621127
 20
2.377256561997077
 10
1.270190772861487
 20
2.418208440756716
 10
1.229238894101847
 20
2.431859067009929
  0
LWPOLYLINE
  5
D5
100
AcDbEntity
  8
USP-GEO
100
AcDbPolyline
 90
       12
 70
   129
 43
0.0
 10
0.9152744902779446
 20
3.921142391235488
 10
0.9425757427843706
 20
4.043998027514406
 10
1.038130126556862
 20
4.14023494259956
 10
1.160985762835781
 20
4.167536195105986
 10
1.2838413991147
 20
4.14023494259956
 10
1.379395782887193
 20
4.043998027514406
 10
1.406697035393619
 20
3.921142391235488
 10
1.379395782887193
 20
3.798286754956569
 10
1.2838413991147
 20
3.702732371184076
 10
1.160985762835781
 20
3.67543111867765
 10
1.038130126556862
 20
3.702732371184076
 10
0.9425757427843706
 20
3.798286754956569
  0
LWPOLYLINE
  5
D6
100
AcDbEntity
  8
USP-GEO
100
AcDbPolyline
 90
       12
 70
   129
 43
0.0
 10
0.2320606463046246
 20
4.905352544092158
 10
0.1774581412917717
 20
4.973605675358225
 10
0.1638075150385578
 20
5.041858806624291
 10
0.1774581412917717
 20
5.12376256414357
 10
0.2320606463046246
 20
5.178365069156423
 10
0.3139644038239036
 20
5.205666321662849
 10
0.3958681613431825
 20
5.178365069156423
 10
0.4504706663560354
 20
5.12376256414357
 10
0.4777719188624614
 20
5.041858806624291
 10
0.4504706663560354
 20
4.973605675358225
 10
0.3958681613431825
 20
4.905352544092158
 10
0.3139644038239036
 20
4.891701917838945
  0
LWPOLYLINE
  5
D7
100
AcDbEntity
  8
USP-GEO
100
AcDbPolyline
 90
        2
 70
   128
 43
0.0
 10
0.2320606463046246
 20
5.178365069156423
 10
0.3139644038239036
 20
5.205666321662849
  0
LWPOLYLINE
  5
D8
100
AcDbEntity
  8
USP-GEO
100
AcDbPolyline
 90
        9
 70
   128
 43
0.0
 10
1.270190772861487
 20
3.839238633716208
 10
1.2838413991147
 20
3.852889259969423
 10
1.311142651621127
 20
3.866539886222636
 10
1.32479327787434
 20
3.893841138729062
 10
1.32479327787434
 20
3.921142391235488
 10
1.32479327787434
 20
3.948443643741914
 10
1.311142651621127
 20
3.97574489624834
 10
1.2838413991147
 20
3.989395522501554
 10
1.284523930427361
 20
3.989395522501554
  0
LWPOLYLINE
  5
D9
100
AcDbEntity
  8
USP-GEO
100
AcDbPolyline
 90
       16
 70
   129
 43
0.0
 10
1.229238894101847
 20
3.893841138729062
 10
1.229238894101847
 20
3.921142391235488
 10
1.229238894101847
 20
3.948443643741914
 10
1.242889520355061
 20
3.97574489624834
 10
1.270190772861487
 20
3.989395522501554
 10
1.297492025367913
 20
4.003046148754767
 10
1.32479327787434
 20
3.989395522501554
 10
1.352094530380766
 20
3.97574489624834
 10
1.365745156633979
 20
3.948443643741914
 10
1.365745156633979
 20
3.921142391235488
 10
1.365745156633979
 20
3.893841138729062
 10
1.352094530380766
 20
3.866539886222636
 10
1.32479327787434
 20
3.852889259969423
 10
1.297492025367913
 20
3.839238633716208
 10
1.270190772861487
 20
3.852889259969423
 10
1.242889520355061
 20
3.866539886222636
  0
LWPOLYLINE
  5
DA
100
AcDbEntity
  8
USP-GEO
100
AcDbPolyline
 90
        3
 70
   128
 43
0.0
 10
1.311142651621127
 20
3.880190512475849
 10
1.270190772861487
 20
3.921142391235488
 10
1.229238894101847
 20
3.934793017488701
  0
LWPOLYLINE
  5
DB
100
AcDbEntity
  8
USP-GEO
100
AcDbPolyline
 90
        2
 70
   128
 43
0.0
 10
1.447648914153258
 20
4.249439952625264
 10
1.297492025367913
 20
4.331343710144544
  0
LWPOLYLINE
  5
DC
100
AcDbEntity
  8
USP-GEO
100
AcDbPolyline
 90
        2
 70
   128
 43
0.0
 10
3.346451025975212
 20
0.1501568887853448
 10
2.062609626860512
 20
1.653090839264116
  0
LWPOLYLINE
  5
DD
100
AcDbEntity
  8
USP-GEO
100
AcDbPolyline
 90
        7
 70
   128
 43
0.0
 10
0.0
 20
6.722250898394833
 10
0.0682531312660659
 20
6.722250898394833
 10
0.0682531312660659
 20
6.613045888369128
 10
0.0682531312660659
 20
6.421937120824144
 10
0.0682531312660659
 20
6.216495195713285
 10
0.0682531312660659
 20
6.0253864281683
 10
0.0682531312660659
 20
5.916181418142596
  0
LWPOLYLINE
  5
DE
100
AcDbEntity
  8
USP-GEO
100
AcDbPolyline
 90
        5
 70
   128
 43
0.0
 10
0.0
 20
6.96796217095267
 10
0.0682531312660659
 20
6.96796217095267
 10
0.0682531312660659
 20
6.858757160926966
 10
0.0682531312660659
 20
6.776853403407686
 10
0.0682531312660659
 20
6.722250898394833
  0
LWPOLYLINE
  5
DF
100
AcDbEntity
  8
USP-GEO
100
AcDbPolyline
 90
        2
 70
   129
 43
0.0
 10
0.0
 20
7.17340409606353
 10
0.0682531312660659
 20
7.17340409606353
  0
LWPOLYLINE
  5
E0
100
AcDbEntity
  8
USP-GEO
100
AcDbPolyline
 90
       12
 70
   129
 43
0.0
 10
0.9152744902779446
 20
6.326382737051652
 10
0.9425757427843706
 20
6.189193943206859
 10
1.038130126556862
 20
6.107290185687579
 10
1.160985762835781
 20
6.06633830692794
 10
1.2838413991147
 20
6.107290185687579
 10
1.379395782887193
 20
6.189193943206859
 10
1.406697035393619
 20
6.326382737051652
 10
1.379395782887193
 20
6.44923837333057
 10
1.2838413991147
 20
6.544792757103063
 10
1.160985762835781
 20
6.572094009609489
 10
1.038130126556862
 20
6.544792757103063
 10
0.9425757427843706
 20
6.44923837333057
  0
LWPOLYLINE
  5
E1
100
AcDbEntity
  8
USP-GEO
100
AcDbPolyline
 90
        2
 70
   128
 43
0.0
 10
1.474950166659684
 20
6.613045888369128
 10
1.297492025367913
 20
6.722250898394833
  0
LWPOLYLINE
  5
E2
100
AcDbEntity
  8
USP-GEO
100
AcDbPolyline
 90
       16
 70
   129
 43
0.0
 10
1.229238894101847
 20
6.285430858292012
 10
1.229238894101847
 20
6.326382737051652
 10
1.229238894101847
 20
6.353683989558078
 10
1.242889520355061
 20
6.380985242064504
 10
1.270190772861487
 20
6.394635868317718
 10
1.297492025367913
 20
6.394635868317718
 10
1.32479327787434
 20
6.394635868317718
 10
1.352094530380766
 20
6.380985242064504
 10
1.365745156633979
 20
6.353683989558078
 10
1.365745156633979
 20
6.326382737051652
 10
1.365745156633979
 20
6.285430858292012
 10
1.352094530380766
 20
6.271097700726138
 10
1.32479327787434
 20
6.243796448219711
 10
1.297492025367913
 20
6.243796448219711
 10
1.270190772861487
 20
6.243796448219711
 10
1.242889520355061
 20
6.271097700726138
  0
LWPOLYLINE
  5
E3
100
AcDbEntity
  8
USP-GEO
100
AcDbPolyline
 90
        9
 70
   128
 43
0.0
 10
1.284523930427361
 20
6.394635868317718
 10
1.2838413991147
 20
6.394635868317718
 10
1.311142651621127
 20
6.380985242064504
 10
1.32479327787434
 20
6.353683989558078
 10
1.32479327787434
 20
6.326382737051652
 10
1.32479327787434
 20
6.285430858292012
 10
1.311142651621127
 20
6.271097700726138
 10
1.270190772861487
 20
6.326382737051652
 10
1.229238894101847
 20
6.326382737051652
  0
LWPOLYLINE
  5
E4
100
AcDbEntity
  8
USP-GEO
100
AcDbPolyline
 90
        3
 70
   128
 43
0.0
 10
1.311142651621127
 20
6.271097700726138
 10
1.2838413991147
 20
6.243796448219711
 10
1.270190772861487
 20
6.243796448219711
  0
ENDBLK
  5
E6
100
AcDbEntity
  8
0
100
AcDbBlockEnd
  0
ENDSEC
  0
SECTION
  2
ENTITIES
  0
INSERT
  5
3
100
AcDbEntity
  8
USP
100
AcDbBlockReference
  2
HUS177_T
 10
5.204197275075673
 20
10.30335197945951
 30
0.0
  0
INSERT
  5
40
100
AcDbEntity
  8
USP
100
AcDbBlockReference
  2
HUS177_F
 10
5.204197275075673
 20
1.285748276586886
 30
0.0
  0
INSERT
  5
BB
100
AcDbEntity
  8
USP
100
AcDbBlockReference
  2
HUS177_S
 10
0.2872416986682831
 20
1.285748276586886
 30
0.0
  0
ENDSEC
  0
SECTION
  2
OBJECTS
  0
DICTIONARY
  5
FF
102
{ACAD_XDICTIONARY
360
100
102
}
100
AcDbDictionary
  3
ACAD_GROUP
350
FD
  3
ACAD_MLINESTYLE
350
FE
  0
DICTIONARY
  5
9
100
AcDbDictionary
280
     1
  3
ACAD_XREC_ROUNDTRIP
360
A
  0
DICTIONARY
  5
F
100
AcDbDictionary
280
     1
  3
ACAD_XREC_ROUNDTRIP
360
10
  0
DICTIONARY
  5
E7
100
AcDbDictionary
280
     1
  3
ACAD_LAYOUTSELFREF
360
E8
  0
DICTIONARY
  5
EC
100
AcDbDictionary
280
     1
  3
ACAD_LAYOUTSELFREF
360
ED
  0
DICTIONARY
  5
100
100
AcDbDictionary
280
     1
  3
ACAD_XREC_ROUNDTRIP
360
101
  0
DICTIONARY
  5
FD
102
{ACAD_REACTORS
330
FF
102
}
100
AcDbDictionary
  0
DICTIONARY
  5
FE
102
{ACAD_REACTORS
330
FF
102
}
100
AcDbDictionary
  3
STANDARD
350
102
  0
XRECORD
  5
A
102
{ACAD_REACTORS
330
9
102
}
100
AcDbXrecord
102
EXTNAMES
  1
USP-GEO
  2
USP-Geo
  0
XRECORD
  5
10
102
{ACAD_REACTORS
330
F
102
}
100
AcDbXrecord
102
EXTNAMES
  1
USP-TXT
  2
USP-Txt
  0
XRECORD
  5
E8
102
{ACAD_REACTORS
330
E7
102
}
100
AcDbXrecord
340
18
  0
XRECORD
  5
ED
102
{ACAD_REACTORS
330
EC
102
}
100
AcDbXrecord
340
15
  0
XRECORD
  5
101
102
{ACAD_REACTORS
330
100
102
}
100
AcDbXrecord
102
EXTNAMES
  1
ACDBVARIABLEDICTIONARY
  2
AcDbVariableDictionary
  0
MLINESTYLE
  5
102
102
{ACAD_REACTORS
330
FE
102
}
100
AcDbMlineStyle
  2
STANDARD
 70
     0
  3

 62
     0
 51
90.0
 52
90.0
 71
     2
 49
0.5
 62
   256
  6
BYLAYER
 49
-0.5
 62
   256
  6
BYLAYER
  0
ENDSEC
  0
EOF
