  0
SECTION
  2
HEADER
  9
$ACADVER
  1
AC1014
  9
$ACADMAINTVER
 70
     9
  9
$DWGCODEPAGE
  3
ANSI_1252
  9
$INSBASE
 10
0.0
 20
0.0
 30
0.0
  9
$EXTMIN
 10
0.0108556394155812
 20
0.0026549208908974
 30
0.0
  9
$EXTMAX
 10
11.34572540161722
 20
13.51920468171592
 30
0.0
  9
$LIMMIN
 10
0.0
 20
0.0
  9
$LIMMAX
 10
12.0
 20
9.0
  9
$ORTHOMODE
 70
     1
  9
$REGENMODE
 70
     1
  9
$FILLMODE
 70
     1
  9
$QTEXTMODE
 70
     0
  9
$MIRRTEXT
 70
     0
  9
$DRAGMODE
 70
     2
  9
$LTSCALE
 40
1.5
  9
$OSMODE
 70
     0
  9
$ATTMODE
 70
     1
  9
$TEXTSIZE
 40
0.75
  9
$TRACEWID
 40
0.05
  9
$TEXTSTYLE
  7
STANDARD
  9
$CLAYER
  8
USP
  9
$CELTYPE
  6
BYLAYER
  9
$CECOLOR
 62
   256
  9
$CELTSCALE
 40
1.0
  9
$DELOBJ
 70
     1
  9
$DISPSILH
 70
     1
  9
$DIMSCALE
 40
5.0
  9
$DIMASZ
 40
0.125
  9
$DIMEXO
 40
0.0625
  9
$DIMDLI
 40
0.37890625
  9
$DIMRND
 40
0.0
  9
$DIMDLE
 40
0.0
  9
$DIMEXE
 40
0.09375
  9
$DIMTP
 40
0.0
  9
$DIMTM
 40
0.0
  9
$DIMTXT
 40
0.109375
  9
$DIMCEN
 40
0.0
  9
$DIMTSZ
 40
0.0
  9
$DIMTOL
 70
     0
  9
$DIMLIM
 70
     0
  9
$DIMTIH
 70
     1
  9
$DIMTOH
 70
     1
  9
$DIMSE1
 70
     0
  9
$DIMSE2
 70
     0
  9
$DIMTAD
 70
     0
  9
$DIMZIN
 70
     8
  9
$DIMBLK
  1

  9
$DIMASO
 70
     1
  9
$DIMSHO
 70
     1
  9
$DIMPOST
  1

  9
$DIMAPOST
  1

  9
$DIMALT
 70
     0
  9
$DIMALTD
 70
     2
  9
$DIMALTF
 40
25.4
  9
$DIMLFAC
 40
1.0
  9
$DIMTOFL
 70
     0
  9
$DIMTVP
 40
0.0
  9
$DIMTIX
 70
     0
  9
$DIMSOXD
 70
     0
  9
$DIMSAH
 70
     0
  9
$DIMBLK1
  1

  9
$DIMBLK2
  1

  9
$DIMSTYLE
  2
STANDARD
  9
$DIMCLRD
 70
     0
  9
$DIMCLRE
 70
     0
  9
$DIMCLRT
 70
   256
  9
$DIMTFAC
 40
1.0
  9
$DIMGAP
 40
0.08984375
  9
$DIMJUST
 70
     0
  9
$DIMSD1
 70
     0
  9
$DIMSD2
 70
     0
  9
$DIMTOLJ
 70
     1
  9
$DIMTZIN
 70
     0
  9
$DIMALTZ
 70
     0
  9
$DIMALTTZ
 70
     0
  9
$DIMFIT
 70
     3
  9
$DIMUPT
 70
     1
  9
$DIMUNIT
 70
     7
  9
$DIMDEC
 70
     4
  9
$DIMTDEC
 70
     4
  9
$DIMALTU
 70
     2
  9
$DIMALTTD
 70
     2
  9
$DIMTXSTY
  7
STANDARD
  9
$DIMAUNIT
 70
     0
  9
$LUNITS
 70
     5
  9
$LUPREC
 70
     6
  9
$SKETCHINC
 40
0.1
  9
$FILLETRAD
 40
0.0
  9
$AUNITS
 70
     0
  9
$AUPREC
 70
     1
  9
$MENU
  1
CUSTOM
  9
$ELEVATION
 40
0.0
  9
$PELEVATION
 40
0.0
  9
$THICKNESS
 40
0.0
  9
$LIMCHECK
 70
     0
  9
$BLIPMODE
 70
     0
  9
$CHAMFERA
 40
0.0
  9
$CHAMFERB
 40
0.0
  9
$CHAMFERC
 40
0.0
  9
$CHAMFERD
 40
0.0
  9
$SKPOLY
 70
     0
  9
$TDCREATE
 40
2451263.663231366
  9
$TDUPDATE
 40
2452768.660914167
  9
$TDINDWG
 40
0.5722418750
  9
$TDUSRTIMER
 40
0.5722418750
  9
$USRTIMER
 70
     1
  9
$ANGBASE
 50
0.0
  9
$ANGDIR
 70
     0
  9
$PDMODE
 70
     0
  9
$PDSIZE
 40
0.0
  9
$PLINEWID
 40
0.0
  9
$COORDS
 70
     2
  9
$SPLFRAME
 70
     0
  9
$SPLINETYPE
 70
     6
  9
$SPLINESEGS
 70
     8
  9
$ATTDIA
 70
     0
  9
$ATTREQ
 70
     0
  9
$HANDLING
 70
     1
  9
$HANDSEED
  5
D6
  9
$SURFTAB1
 70
     6
  9
$SURFTAB2
 70
     6
  9
$SURFTYPE
 70
     6
  9
$SURFU
 70
     6
  9
$SURFV
 70
     6
  9
$UCSNAME
  2

  9
$UCSORG
 10
0.0
 20
0.0
 30
0.0
  9
$UCSXDIR
 10
1.0
 20
0.0
 30
0.0
  9
$UCSYDIR
 10
0.0
 20
1.0
 30
0.0
  9
$PUCSNAME
  2

  9
$PUCSORG
 10
0.0
 20
0.0
 30
0.0
  9
$PUCSXDIR
 10
1.0
 20
0.0
 30
0.0
  9
$PUCSYDIR
 10
0.0
 20
1.0
 30
0.0
  9
$USERI1
 70
     0
  9
$USERI2
 70
     0
  9
$USERI3
 70
     0
  9
$USERI4
 70
     0
  9
$USERI5
 70
     0
  9
$USERR1
 40
0.0
  9
$USERR2
 40
0.0
  9
$USERR3
 40
0.0
  9
$USERR4
 40
0.0
  9
$USERR5
 40
0.0
  9
$WORLDVIEW
 70
     1
  9
$SHADEDGE
 70
     3
  9
$SHADEDIF
 70
    70
  9
$TILEMODE
 70
     1
  9
$MAXACTVP
 70
    16
  9
$PINSBASE
 10
0.0
 20
0.0
 30
0.0
  9
$PLIMCHECK
 70
     0
  9
$PEXTMIN
 10
1.049999952316284
 20
0.7999999523162842
 30
0.0
  9
$PEXTMAX
 10
9.449999570846555
 20
7.199999570846556
 30
0.0
  9
$PLIMMIN
 10
0.0
 20
0.0
  9
$PLIMMAX
 10
12.0
 20
9.0
  9
$UNITMODE
 70
     0
  9
$VISRETAIN
 70
     0
  9
$PLINEGEN
 70
     0
  9
$PSLTSCALE
 70
     0
  9
$TREEDEPTH
 70
  3020
  9
$PICKSTYLE
 70
     0
  9
$CMLSTYLE
  2
STANDARD
  9
$CMLJUST
 70
     0
  9
$CMLSCALE
 40
1.0
  9
$PROXYGRAPHICS
 70
     1
  9
$MEASUREMENT
 70
     0
  0
ENDSEC
  0
SECTION
  2
CLASSES
  0
CLASS
  1
ACDBDICTIONARYWDFLT
  2
AcDbDictionaryWithDefault
  3
AutoCAD 2000
 90
        0
280
     0
281
     0
  0
CLASS
  1
ACDBPLACEHOLDER
  2
AcDbPlaceHolder
  3
AutoCAD 2000
 90
        0
280
     0
281
     0
  0
CLASS
  1
LAYOUT
  2
AcDbLayout
  3
AutoCAD 2000
 90
        0
280
     0
281
     0
  0
CLASS
  1
DICTIONARYVAR
  2
AcDbDictionaryVar
  3
"AutoCAD"
 90
        0
280
     0
281
     0
  0
CLASS
  1
LONG_TRANSACTION
  2
AcDbLongTransaction
  3
AutoCAD 2000
 90
        0
280
     0
281
     0
  0
CLASS
  1
LWPOLYLINE
  2
AcDbPolyline
  3
"AutoCAD"
 90
        0
280
     0
281
     1
  0
CLASS
  1
HATCH
  2
AcDbHatch
  3
"ACAD_SEDONA"
 90
        0
280
     0
281
     1
  0
CLASS
  1
XRECORD
  2
AcDbXrecord
  3
"<Built In>"
 90
        0
280
     0
281
     0
  0
CLASS
  1
LONG_TRANSACTION
  2
AcDbLongTransaction
  3
AutoCAD 2000
 90
        0
280
     0
281
     0
  0
CLASS
  1
LWPOLYLINE
  2
AcDbPolyline
  3
"AutoCAD"
 90
        0
280
     0
281
     1
  0
CLASS
  1
HATCH
  2
AcDbHatch
  3
"ACAD_SEDONA"
 90
        0
280
     0
281
     1
  0
CLASS
  1
XRECORD
  2
AcDbXrecord
  3
"<Built In>"
 90
        0
280
     0
281
     0
  0
ENDSEC
  0
SECTION
  2
TABLES
  0
TABLE
  2
VPORT
  5
C6
100
AcDbSymbolTable
 70
     1
  0
VPORT
  5
C7
100
AcDbSymbolTableRecord
100
AcDbViewportTableRecord
  2
*ACTIVE
 70
     0
 10
0.0
 20
0.0
 11
1.0
 21
1.0
 12
-17.41783855098033
 22
17.54583476238706
 13
0.0
 23
0.0
 14
1.0
 24
1.0
 15
0.0
 25
0.0
 16
0.0
 26
0.0
 36
1.0
 17
23.09603071721725
 27
-10.27010416511325
 37
-10.44050274849355
 40
14.62862102359869
 41
1.457627118644067
 42
50.0
 43
10.55307667737539
 44
10.55307667737539
 50
0.0
 51
0.0
 71
     0
 72
   100
 73
     1
 74
     1
 75
     0
 76
     0
 77
     0
 78
     0
  0
ENDTAB
  0
TABLE
  2
LTYPE
  5
C1
100
AcDbSymbolTable
 70
     1
  0
LTYPE
  5
C2
100
AcDbSymbolTableRecord
100
AcDbLinetypeTableRecord
  2
BYBLOCK
 70
     0
  3

 72
    65
 73
     0
 40
0.0
  0
LTYPE
  5
C3
100
AcDbSymbolTableRecord
100
AcDbLinetypeTableRecord
  2
BYLAYER
 70
     0
  3

 72
    65
 73
     0
 40
0.0
  0
LTYPE
  5
5
100
AcDbSymbolTableRecord
100
AcDbLinetypeTableRecord
  2
CONTINUOUS
 70
     0
  3
Solid line
 72
    65
 73
     0
 40
0.0
  0
ENDTAB
  0
TABLE
  2
LAYER
  5
BF
100
AcDbSymbolTable
 70
     4
  0
LAYER
  5
37
100
AcDbSymbolTableRecord
100
AcDbLayerTableRecord
  2
0
 70
     0
 62
     7
  6
CONTINUOUS
  0
LAYER
  5
8
102
{ACAD_XDICTIONARY
360
9
102
}
100
AcDbSymbolTableRecord
100
AcDbLayerTableRecord
  2
USP-GEO
 70
     0
 62
     7
  6
CONTINUOUS
  0
LAYER
  5
D
102
{ACAD_XDICTIONARY
360
E
102
}
100
AcDbSymbolTableRecord
100
AcDbLayerTableRecord
  2
USP-TXT
 70
     0
 62
     7
  6
CONTINUOUS
  0
LAYER
  5
4
100
AcDbSymbolTableRecord
100
AcDbLayerTableRecord
  2
USP
 70
     0
 62
     7
  6
CONTINUOUS
  0
ENDTAB
  0
TABLE
  2
STYLE
  5
C0
100
AcDbSymbolTable
 70
     1
  0
STYLE
  5
10
100
AcDbSymbolTableRecord
100
AcDbTextStyleTableRecord
  2
STANDARD
 70
     0
 40
0.0
 41
1.0
 50
0.0
 71
     0
 42
0.75
  3
txt
  4

  0
ENDTAB
  0
TABLE
  2
VIEW
  5
C4
100
AcDbSymbolTable
 70
     0
  0
ENDTAB
  0
TABLE
  2
UCS
  5
C5
100
AcDbSymbolTable
 70
     0
  0
ENDTAB
  0
TABLE
  2
APPID
  5
C8
100
AcDbSymbolTable
 70
     1
  0
APPID
  5
C9
100
AcDbSymbolTableRecord
100
AcDbRegAppTableRecord
  2
ACAD
 70
     0
  0
ENDTAB
  0
TABLE
  2
DIMSTYLE
  5
CA
100
AcDbSymbolTable
 70
     1
  0
DIMSTYLE
105
D2
100
AcDbSymbolTableRecord
100
AcDbDimStyleTableRecord
  2
STANDARD
 70
     0
  3

  4

  5

  6

  7

 40
1.0
 41
0.18
 42
0.0625
 43
0.38
 44
0.18
 45
0.0
 46
0.0
 47
0.0
 48
0.0
140
0.18
141
0.09
142
0.0
143
25.4
144
1.0
145
0.0
146
1.0
147
0.09
 71
     0
 72
     0
 73
     1
 74
     1
 75
     0
 76
     0
 77
     0
 78
     0
170
     0
171
     2
172
     0
173
     0
174
     0
175
     0
176
     0
177
     0
178
     0
270
     2
271
     4
272
     4
273
     2
274
     2
340
10
275
     0
280
     0
281
     0
282
     0
283
     1
284
     0
285
     0
286
     0
287
     3
288
     0
  0
ENDTAB
  0
TABLE
  2
BLOCK_RECORD
  5
1
100
AcDbSymbolTable
 70
     3
  0
BLOCK_RECORD
  5
2
102
{ACAD_XDICTIONARY
360
B6
102
}
100
AcDbSymbolTableRecord
100
AcDbBlockTableRecord
  2
*MODEL_SPACE
  0
BLOCK_RECORD
  5
BA
102
{ACAD_XDICTIONARY
360
BB
102
}
100
AcDbSymbolTableRecord
100
AcDbBlockTableRecord
  2
*PAPER_SPACE
  0
BLOCK_RECORD
  5
6
100
AcDbSymbolTableRecord
100
AcDbBlockTableRecord
  2
HUS175_T
  0
BLOCK_RECORD
  5
3A
100
AcDbSymbolTableRecord
100
AcDbBlockTableRecord
  2
HUS175_F
  0
BLOCK_RECORD
  5
90
100
AcDbSymbolTableRecord
100
AcDbBlockTableRecord
  2
HUS175_S
  0
ENDTAB
  0
ENDSEC
  0
SECTION
  2
BLOCKS
  0
BLOCK
  5
B8
100
AcDbEntity
  8
0
100
AcDbBlockBegin
  2
*MODEL_SPACE
 70
     0
 10
0.0
 20
0.0
 30
0.0
  3
*MODEL_SPACE
  1

  0
ENDBLK
  5
B9
100
AcDbEntity
  8
0
100
AcDbBlockEnd
  0
BLOCK
  5
BD
100
AcDbEntity
 67
     1
  8
0
100
AcDbBlockBegin
  2
*PAPER_SPACE
 70
     0
 10
0.0
 20
0.0
 30
0.0
  3
*PAPER_SPACE
  1

  0
ENDBLK
  5
BE
100
AcDbEntity
 67
     1
  8
0
100
AcDbBlockEnd
  0
BLOCK
  5
36
100
AcDbEntity
  8
0
100
AcDbBlockBegin
  2
HUS175_T
 70
     0
 10
0.0
 20
0.0
 30
0.0
  3
HUS175_T
  1

  0
LWPOLYLINE
  5
7
100
AcDbEntity
  8
USP-GEO
100
AcDbPolyline
 90
       21
 70
   128
 43
0.0
 10
1.941874725210286
 20
3.318436162963449
 10
1.941874725210286
 20
2.25249382594656
 10
1.995778256791417
 20
2.25249382594656
 10
1.995778256791417
 20
3.385815577439865
 10
0.0
 20
3.385815577439865
 10
0.0
 20
3.318436162963449
 10
0.0
 20
3.385815577439865
 10
1.995778256791417
 20
3.385815577439865
 10
1.995778256791417
 20
2.25249382594656
 10
1.995778256791417
 20
2.239017943051278
 10
1.995778256791417
 20
2.171638528574861
 10
1.995778256791417
 20
2.090783231203165
 10
1.995778256791417
 20
1.929072636459768
 10
1.995778256791417
 20
1.834741456192785
 10
1.995778256791417
 20
1.794313807506936
 10
1.995778256791417
 20
1.740410275925805
 10
1.995778256791417
 20
1.578025887037645
 10
1.995778256791417
 20
1.321984112027266
 10
1.995778256791417
 20
0.0269517657905656
 10
1.995778256791417
 20
0.0134758828952837
 10
1.995778256791417
 20
0.0
  0
LWPOLYLINE
  5
B
100
AcDbEntity
  8
USP-GEO
100
AcDbPolyline
 90
        2
 70
   129
 43
0.0
 10
1.941874725210286
 20
3.318436162963449
 10
0.0
 20
3.318436162963449
  0
TEXT
  5
C
100
AcDbEntity
  8
USP-TXT
100
AcDbText
 10
1.199889930139171
 20
-1.588284109982039
 30
0.0
 40
0.203125
  1
HUS175 - TOP VIEW
 72
     1
 11
2.892598263472505
 21
-1.588284109982039
 31
0.0
100
AcDbText
  0
LWPOLYLINE
  5
11
100
AcDbEntity
  8
USP-GEO
100
AcDbPolyline
 90
       30
 70
   129
 43
0.0
 10
3.843321801734724
 20
2.25249382594656
 10
3.843321801734724
 20
3.318436162963449
 10
5.785196526945011
 20
3.318436162963449
 10
5.785196526945011
 20
3.385815577439865
 10
3.789418270153593
 20
3.385815577439865
 10
3.789418270153593
 20
2.25249382594656
 10
3.789418270153593
 20
2.239017943051278
 10
3.789418270153593
 20
2.171638528574861
 10
3.789418270153593
 20
2.090783231203165
 10
3.789418270153593
 20
1.929072636459768
 10
3.789418270153593
 20
1.834741456192785
 10
3.789418270153593
 20
1.794313807506936
 10
3.789418270153593
 20
1.740410275925805
 10
3.789418270153593
 20
1.578025887037645
 10
3.789418270153593
 20
1.321984112027266
 10
3.789418270153593
 20
0.0269517657905656
 10
3.789418270153593
 20
0.0134758828952837
 10
3.789418270153593
 20
0.0
 10
3.843321801734724
 20
0.0
 10
3.843321801734724
 20
0.0134758828952837
 10
3.843321801734724
 20
0.0269517657905656
 10
3.843321801734724
 20
1.321984112027266
 10
3.843321801734724
 20
1.578025887037645
 10
3.843321801734724
 20
1.740410275925805
 10
3.843321801734724
 20
1.794313807506936
 10
3.843321801734724
 20
1.834741456192785
 10
3.843321801734724
 20
1.929072636459768
 10
3.843321801734724
 20
2.090783231203165
 10
3.843321801734724
 20
2.171638528574861
 10
3.843321801734724
 20
2.239017943051278
  0
LWPOLYLINE
  5
12
100
AcDbEntity
  8
USP-GEO
100
AcDbPolyline
 90
        6
 70
   129
 43
0.0
 10
3.843321801734724
 20
2.25249382594656
 10
3.843321801734724
 20
3.318436162963449
 10
5.785196526945011
 20
3.318436162963449
 10
5.785196526945011
 20
3.385815577439865
 10
3.789418270153593
 20
3.385815577439865
 10
3.789418270153593
 20
2.25249382594656
  0
LWPOLYLINE
  5
13
100
AcDbEntity
  8
USP-GEO
100
AcDbPolyline
 90
       15
 70
   128
 43
0.0
 10
1.941874725210286
 20
3.318436162963449
 10
1.941874725210286
 20
2.25249382594656
 10
1.941874725210286
 20
2.239017943051278
 10
1.941874725210286
 20
2.171638528574861
 10
1.941874725210286
 20
2.090783231203165
 10
1.941874725210286
 20
1.929072636459768
 10
1.941874725210286
 20
1.834741456192785
 10
1.941874725210286
 20
1.794313807506936
 10
1.941874725210286
 20
1.740410275925805
 10
1.941874725210286
 20
1.578025887037645
 10
1.941874725210286
 20
1.321984112027266
 10
1.941874725210286
 20
0.0269517657905656
 10
1.941874725210286
 20
0.0134758828952837
 10
1.941874725210286
 20
0.0
 10
1.995778256791417
 20
0.0
  0
LWPOLYLINE
  5
14
100
AcDbEntity
  8
USP-GEO
100
AcDbPolyline
 90
        4
 70
   128
 43
0.0
 10
1.995778256791417
 20
0.0269517657905656
 10
1.995778256791417
 20
1.321984112027266
 10
1.941874725210286
 20
1.321984112027266
 10
1.941874725210286
 20
0.0269517657905656
  0
LWPOLYLINE
  5
15
100
AcDbEntity
  8
USP-GEO
100
AcDbPolyline
 90
       10
 70
   128
 43
0.0
 10
3.789418270153593
 20
0.0269517657905656
 10
3.789418270153593
 20
1.321984112027266
 10
3.789418270153593
 20
1.578025887037645
 10
3.789418270153593
 20
1.740410275925805
 10
3.789418270153593
 20
1.794313807506936
 10
3.843321801734724
 20
1.794313807506936
 10
3.843321801734724
 20
1.740410275925805
 10
3.843321801734724
 20
1.578025887037645
 10
3.843321801734724
 20
1.321984112027266
 10
3.843321801734724
 20
0.0269517657905656
  0
LWPOLYLINE
  5
16
100
AcDbEntity
  8
USP-GEO
100
AcDbPolyline
 90
        4
 70
   128
 43
0.0
 10
2.265295914697079
 20
0.0
 10
2.278771797592362
 20
0.0539035315811312
 10
2.305723563382928
 20
0.0808552973716985
 10
2.360300889108824
 20
0.0943311802669804
  0
LWPOLYLINE
  5
17
100
AcDbEntity
  8
USP-GEO
100
AcDbPolyline
 90
        2
 70
   129
 43
0.0
 10
2.265295914697079
 20
0.0
 10
1.995778256791417
 20
0.0
  0
LWPOLYLINE
  5
18
100
AcDbEntity
  8
USP-GEO
100
AcDbPolyline
 90
        7
 70
   128
 43
0.0
 10
1.995778256791417
 20
0.0
 10
1.941874725210286
 20
0.0
 10
1.941874725210286
 20
0.0134758828952837
 10
1.941874725210286
 20
0.0269517657905656
 10
1.995778256791417
 20
0.0269517657905656
 10
1.995778256791417
 20
0.0134758828952837
 10
1.996452050936182
 20
0.0134758828952837
  0
LWPOLYLINE
  5
19
100
AcDbEntity
  8
USP-GEO
100
AcDbPolyline
 90
        2
 70
   128
 43
0.0
 10
1.941874725210286
 20
0.0134758828952837
 10
1.94254851935505
 20
0.0134758828952837
  0
LWPOLYLINE
  5
1A
100
AcDbEntity
  8
USP-GEO
100
AcDbPolyline
 90
        2
 70
   128
 43
0.0
 10
1.995778256791417
 20
0.0
 10
1.995778256791417
 20
0.0134758828952837
  0
LWPOLYLINE
  5
1B
100
AcDbEntity
  8
USP-GEO
100
AcDbPolyline
 90
        2
 70
   129
 43
0.0
 10
3.263185043092789
 20
0.0
 10
2.522011483852221
 20
0.0
  0
LWPOLYLINE
  5
1C
100
AcDbEntity
  8
USP-GEO
100
AcDbPolyline
 90
        4
 70
   128
 43
0.0
 10
2.427680303585241
 20
0.0943311802669804
 10
2.46810795227109
 20
0.0808552973716985
 10
2.508535600956939
 20
0.0539035315811312
 10
2.522011483852221
 20
0.0
  0
LWPOLYLINE
  5
1D
100
AcDbEntity
  8
USP-GEO
100
AcDbPolyline
 90
        2
 70
   129
 43
0.0
 10
2.427680303585241
 20
0.0943311802669804
 10
2.360300889108824
 20
0.0943311802669804
  0
LWPOLYLINE
  5
1E
100
AcDbEntity
  8
USP-GEO
100
AcDbPolyline
 90
        2
 70
   129
 43
0.0
 10
3.789418270153593
 20
0.0
 10
3.519900612247932
 20
0.0
  0
LWPOLYLINE
  5
1F
100
AcDbEntity
  8
USP-GEO
100
AcDbPolyline
 90
        4
 70
   128
 43
0.0
 10
3.424895637836186
 20
0.0943311802669804
 10
3.479472963562082
 20
0.0808552973716985
 10
3.506424729352648
 20
0.0539035315811312
 10
3.519900612247932
 20
0.0
  0
LWPOLYLINE
  5
20
100
AcDbEntity
  8
USP-GEO
100
AcDbPolyline
 90
        4
 70
   128
 43
0.0
 10
3.35751622335977
 20
0.0943311802669804
 10
3.31708857467392
 20
0.0808552973716985
 10
3.276660925988071
 20
0.0539035315811312
 10
3.263185043092789
 20
0.0
  0
LWPOLYLINE
  5
21
100
AcDbEntity
  8
USP-GEO
100
AcDbPolyline
 90
        2
 70
   129
 43
0.0
 10
3.424895637836186
 20
0.0943311802669804
 10
3.35751622335977
 20
0.0943311802669804
  0
LWPOLYLINE
  5
22
100
AcDbEntity
  8
USP-GEO
100
AcDbPolyline
 90
        6
 70
   129
 43
0.0
 10
3.843321801734724
 20
0.0
 10
3.789418270153593
 20
0.0
 10
3.789418270153593
 20
0.0134758828952837
 10
3.789418270153593
 20
0.0269517657905656
 10
3.843321801734724
 20
0.0269517657905656
 10
3.843321801734724
 20
0.0134758828952837
  0
LWPOLYLINE
  5
23
100
AcDbEntity
  8
USP-GEO
100
AcDbPolyline
 90
        2
 70
   128
 43
0.0
 10
3.843321801734724
 20
0.0134758828952837
 10
3.843995595879489
 20
0.0134758828952837
  0
LWPOLYLINE
  5
24
100
AcDbEntity
  8
USP-GEO
100
AcDbPolyline
 90
        4
 70
   128
 43
0.0
 10
2.360300889108824
 20
2.913485881960195
 10
2.305723563382928
 20
2.926961764855477
 10
2.278771797592362
 20
2.967389413541326
 10
2.265295914697079
 20
3.007817062227175
  0
LWPOLYLINE
  5
25
100
AcDbEntity
  8
USP-GEO
100
AcDbPolyline
 90
        8
 70
   129
 43
0.0
 10
1.941874725210286
 20
2.090783231203165
 10
1.995778256791417
 20
2.090783231203165
 10
1.995778256791417
 20
1.929072636459768
 10
1.995778256791417
 20
1.834741456192785
 10
1.995778256791417
 20
1.794313807506936
 10
1.941874725210286
 20
1.794313807506936
 10
1.941874725210286
 20
1.834741456192785
 10
1.941874725210286
 20
1.929072636459768
  0
LWPOLYLINE
  5
26
100
AcDbEntity
  8
USP-GEO
100
AcDbPolyline
 90
        8
 70
   128
 43
0.0
 10
1.995778256791417
 20
1.321984112027266
 10
1.995778256791417
 20
1.578025887037645
 10
1.995778256791417
 20
1.740410275925805
 10
1.995778256791417
 20
1.794313807506936
 10
1.941874725210286
 20
1.794313807506936
 10
1.941874725210286
 20
1.740410275925805
 10
1.941874725210286
 20
1.578025887037645
 10
1.941874725210286
 20
1.321984112027266
  0
LWPOLYLINE
  5
27
100
AcDbEntity
  8
USP-GEO
100
AcDbPolyline
 90
        5
 70
   128
 43
0.0
 10
1.941874725210286
 20
2.482257629311137
 10
1.861019427838588
 20
2.387926449044154
 10
1.820591779152739
 20
2.225542060155994
 10
1.820591779152739
 20
2.158162645679579
 10
1.821265573297504
 20
2.158162645679579
  0
LWPOLYLINE
  5
28
100
AcDbEntity
  8
USP-GEO
100
AcDbPolyline
 90
        9
 70
   128
 43
0.0
 10
1.820591779152739
 20
2.158162645679579
 10
1.834067662048022
 20
2.131210879889012
 10
1.847543544943304
 20
2.11773499699373
 10
1.861019427838588
 20
2.090783231203165
 10
1.874495310733871
 20
2.063831465412597
 10
1.887971193629153
 20
2.036879699622032
 10
1.901447076524437
 20
2.023403816726748
 10
1.901447076524437
 20
2.009927933831466
 10
1.941874725210286
 20
1.969500285145617
  0
LWPOLYLINE
  5
29
100
AcDbEntity
  8
USP-GEO
100
AcDbPolyline
 90
        8
 70
   128
 43
0.0
 10
1.941874725210286
 20
2.090783231203165
 10
1.941874725210286
 20
2.171638528574861
 10
1.941874725210286
 20
2.239017943051278
 10
1.941874725210286
 20
2.25249382594656
 10
1.995778256791417
 20
2.25249382594656
 10
1.995778256791417
 20
2.239017943051278
 10
1.995778256791417
 20
2.171638528574861
 10
1.995778256791417
 20
2.090783231203165
  0
LWPOLYLINE
  5
2A
100
AcDbEntity
  8
USP-GEO
100
AcDbPolyline
 90
        2
 70
   129
 43
0.0
 10
1.995778256791417
 20
3.007817062227175
 10
2.265295914697079
 20
3.007817062227175
  0
LWPOLYLINE
  5
2B
100
AcDbEntity
  8
USP-GEO
100
AcDbPolyline
 90
        4
 70
   128
 43
0.0
 10
2.522011483852221
 20
3.007817062227175
 10
2.508535600956939
 20
2.967389413541326
 10
2.46810795227109
 20
2.926961764855477
 10
2.427680303585241
 20
2.913485881960195
  0
LWPOLYLINE
  5
2C
100
AcDbEntity
  8
USP-GEO
100
AcDbPolyline
 90
        4
 70
   128
 43
0.0
 10
3.35751622335977
 20
2.913485881960195
 10
3.31708857467392
 20
2.926961764855477
 10
3.276660925988071
 20
2.967389413541326
 10
3.263185043092789
 20
3.007817062227175
  0
LWPOLYLINE
  5
2D
100
AcDbEntity
  8
USP-GEO
100
AcDbPolyline
 90
        4
 70
   128
 43
0.0
 10
3.519900612247932
 20
3.007817062227175
 10
3.506424729352648
 20
2.967389413541326
 10
3.479472963562082
 20
2.926961764855477
 10
3.424895637836186
 20
2.913485881960195
  0
LWPOLYLINE
  5
2E
100
AcDbEntity
  8
USP-GEO
100
AcDbPolyline
 90
        2
 70
   129
 43
0.0
 10
2.360300889108824
 20
2.913485881960195
 10
2.427680303585241
 20
2.913485881960195
  0
LWPOLYLINE
  5
2F
100
AcDbEntity
  8
USP-GEO
100
AcDbPolyline
 90
       16
 70
   128
 43
0.0
 10
3.843321801734724
 20
2.090783231203165
 10
3.789418270153593
 20
2.090783231203165
 10
3.789418270153593
 20
1.929072636459768
 10
3.789418270153593
 20
1.834741456192785
 10
3.789418270153593
 20
1.794313807506936
 10
3.843321801734724
 20
1.794313807506936
 10
3.843321801734724
 20
1.834741456192785
 10
3.843321801734724
 20
1.929072636459768
 10
3.843321801734724
 20
2.090783231203165
 10
3.843321801734724
 20
2.171638528574861
 10
3.843321801734724
 20
2.239017943051278
 10
3.843321801734724
 20
2.25249382594656
 10
3.789418270153593
 20
2.25249382594656
 10
3.789418270153593
 20
2.239017943051278
 10
3.789418270153593
 20
2.171638528574861
 10
3.789418270153593
 20
2.090783231203165
  0
LWPOLYLINE
  5
30
100
AcDbEntity
  8
USP-GEO
100
AcDbPolyline
 90
        2
 70
   128
 43
0.0
 10
3.843321801734724
 20
1.321984112027266
 10
3.789418270153593
 20
1.321984112027266
  0
LWPOLYLINE
  5
31
100
AcDbEntity
  8
USP-GEO
100
AcDbPolyline
 90
        2
 70
   129
 43
0.0
 10
3.35751622335977
 20
2.913485881960195
 10
3.424895637836186
 20
2.913485881960195
  0
LWPOLYLINE
  5
32
100
AcDbEntity
  8
USP-GEO
100
AcDbPolyline
 90
        4
 70
   128
 43
0.0
 10
3.964604747792272
 20
2.158162645679579
 10
3.964604747792272
 20
2.225542060155994
 10
3.924177099106422
 20
2.387926449044154
 10
3.843321801734724
 20
2.482257629311137
  0
LWPOLYLINE
  5
33
100
AcDbEntity
  8
USP-GEO
100
AcDbPolyline
 90
       10
 70
   128
 43
0.0
 10
3.843321801734724
 20
1.969500285145617
 10
3.883749450420573
 20
2.009927933831466
 10
3.883749450420573
 20
2.023403816726748
 10
3.897225333315857
 20
2.036879699622032
 10
3.910701216211139
 20
2.063831465412597
 10
3.924177099106422
 20
2.090783231203165
 10
3.937652982001706
 20
2.11773499699373
 10
3.951128864896988
 20
2.131210879889012
 10
3.964604747792272
 20
2.158162645679579
 10
3.965278541937035
 20
2.158162645679579
  0
LWPOLYLINE
  5
34
100
AcDbEntity
  8
USP-GEO
100
AcDbPolyline
 90
        2
 70
   129
 43
0.0
 10
2.522011483852221
 20
3.007817062227175
 10
3.263185043092789
 20
3.007817062227175
  0
LWPOLYLINE
  5
35
100
AcDbEntity
  8
USP-GEO
100
AcDbPolyline
 90
        2
 70
   129
 43
0.0
 10
3.519900612247932
 20
3.007817062227175
 10
3.789418270153593
 20
3.007817062227175
  0
ENDBLK
  5
38
100
AcDbEntity
  8
0
100
AcDbBlockEnd
  0
BLOCK
  5
8D
100
AcDbEntity
  8
0
100
AcDbBlockBegin
  2
HUS175_F
 70
     0
 10
0.0
 20
0.0
 30
0.0
  3
HUS175_F
  1

  0
LWPOLYLINE
  5
3B
100
AcDbEntity
  8
USP-GEO
100
AcDbPolyline
 90
       18
 70
   128
 43
0.0
 10
1.995778256791417
 20
0.0808552973716985
 10
1.995778256791417
 20
0.1078070631622641
 10
1.995778256791417
 20
0.1347588289528314
 10
1.995778256791417
 20
0.161710594743397
 10
1.995778256791417
 20
1.658881184409343
 10
1.995778256791417
 20
2.050355582517315
 10
1.995778256791417
 20
2.495059718061655
 10
1.995778256791417
 20
2.953913530646044
 10
1.995778256791417
 20
3.924850893251187
 10
1.995778256791417
 20
4.100711165034631
 10
1.995778256791417
 20
4.248945876882745
 10
1.995778256791417
 20
4.343277057149726
 10
1.995778256791417
 20
4.397180588730858
 10
1.995778256791417
 20
4.478035886102556
 10
1.995778256791417
 20
4.572367066369538
 10
1.995778256791417
 20
5.422021482917134
 10
1.941874725210286
 20
5.422021482917134
 10
0.0
 20
5.422021482917134
  0
LWPOLYLINE
  5
3C
100
AcDbEntity
  8
USP-GEO
100
AcDbPolyline
 90
        8
 70
   128
 43
0.0
 10
0.1758602717834439
 20
4.343277057149726
 10
0.3240949836315572
 20
4.248945876882745
 10
0.4319020467938213
 20
4.100711165034631
 10
0.4588538125843869
 20
3.924850893251187
 10
0.4588538125843869
 20
2.953913530646044
 10
0.5262332270608017
 20
2.495059718061655
 10
0.6879438218041987
 20
2.050355582517315
 10
0.9439855968145778
 20
1.658881184409343
  0
LWPOLYLINE
  5
3D
100
AcDbEntity
  8
USP-GEO
100
AcDbPolyline
 90
        3
 70
   128
 43
0.0
 10
0.4319020467938213
 20
4.100711165034631
 10
0.4588538125843869
 20
3.924850893251187
 10
0.4588538125843869
 20
2.953913530646044
  0
LWPOLYLINE
  5
3E
100
AcDbEntity
  8
USP-GEO
100
AcDbPolyline
 90
       54
 70
   128
 43
0.0
 10
5.758244761154443
 20
4.478035886102556
 10
5.785196526945011
 20
4.572367066369538
 10
5.785196526945011
 20
5.422021482917134
 10
3.843321801734724
 20
5.422021482917134
 10
3.843321801734724
 20
4.572367066369538
 10
3.843321801734724
 20
4.478035886102556
 10
3.843321801734724
 20
4.397180588730858
 10
3.843321801734724
 20
4.343277057149726
 10
3.843321801734724
 20
4.248945876882745
 10
3.843321801734724
 20
4.100711165034631
 10
3.843321801734724
 20
3.924850893251187
 10
3.843321801734724
 20
2.953913530646044
 10
3.843321801734724
 20
2.495059718061655
 10
3.843321801734724
 20
2.050355582517315
 10
3.843321801734724
 20
1.658881184409343
 10
3.843321801734724
 20
0.161710594743397
 10
3.843321801734724
 20
0.1347588289528314
 10
3.843321801734724
 20
0.1078070631622641
 10
3.843321801734724
 20
0.0808552973716985
 10
3.843321801734724
 20
0.0
 10
3.519900612247932
 20
0.0
 10
3.506424729352648
 20
0.0
 10
3.479472963562082
 20
0.0
 10
3.424895637836186
 20
0.0
 10
3.35751622335977
 20
0.0
 10
3.31708857467392
 20
0.0
 10
3.276660925988071
 20
0.0
 10
3.263185043092789
 20
0.0
 10
2.522011483852221
 20
0.0
 10
2.508535600956939
 20
0.0
 10
2.46810795227109
 20
0.0
 10
2.427680303585241
 20
0.0
 10
2.360300889108824
 20
0.0
 10
2.305723563382928
 20
0.0
 10
2.278771797592362
 20
0.0
 10
2.265295914697079
 20
0.0
 10
1.941874725210286
 20
0.0
 10
1.941874725210286
 20
0.0808552973716985
 10
1.941874725210286
 20
0.1078070631622641
 10
1.941874725210286
 20
0.1347588289528314
 10
1.941874725210286
 20
0.161710594743397
 10
1.941874725210286
 20
1.658881184409343
 10
1.941874725210286
 20
2.050355582517315
 10
1.941874725210286
 20
2.495059718061655
 10
1.941874725210286
 20
2.953913530646044
 10
1.941874725210286
 20
3.924850893251187
 10
1.941874725210286
 20
4.100711165034631
 10
1.941874725210286
 20
4.248945876882745
 10
1.941874725210286
 20
4.343277057149726
 10
1.941874725210286
 20
4.397180588730858
 10
1.941874725210286
 20
4.478035886102556
 10
1.941874725210286
 20
4.572367066369538
 10
1.941874725210286
 20
5.422021482917134
 10
0.0
 20
5.422021482917134
  0
LWPOLYLINE
  5
3F
100
AcDbEntity
  8
USP-GEO
100
AcDbPolyline
 90
        3
 70
   128
 43
0.0
 10
0.0808552973716985
 20
4.397180588730858
 10
0.0269517657905656
 20
4.478035886102556
 10
0.0
 20
4.572367066369538
  0
LWPOLYLINE
  5
40
100
AcDbEntity
  8
USP-GEO
100
AcDbPolyline
 90
        2
 70
   129
 43
0.0
 10
0.1758602717834439
 20
4.343277057149726
 10
0.0808552973716985
 20
4.397180588730858
  0
LWPOLYLINE
  5
41
100
AcDbEntity
  8
USP-GEO
100
AcDbPolyline
 90
        2
 70
   129
 43
0.0
 10
0.0
 20
4.572367066369538
 10
0.0
 20
5.422021482917134
  0
LWPOLYLINE
  5
42
100
AcDbEntity
  8
USP-GEO
100
AcDbPolyline
 90
       12
 70
   129
 43
0.0
 10
0.3106191007362735
 20
5.233359122383172
 10
0.3645226323174064
 20
5.219883239487888
 10
0.391474398107972
 20
5.192931473697322
 10
0.4049502810032557
 20
5.13902794211619
 10
0.391474398107972
 20
5.098600293430341
 10
0.3645226323174064
 20
5.071648527639775
 10
0.3106191007362735
 20
5.058172644744492
 10
0.2701914520504243
 20
5.071648527639775
 10
0.2432396862598587
 20
5.098600293430341
 10
0.229763803364575
 20
5.13902794211619
 10
0.2432396862598587
 20
5.192931473697322
 10
0.2701914520504243
 20
5.219883239487888
  0
TEXT
  5
43
100
AcDbEntity
  8
USP-TXT
100
AcDbText
 10
0.9967649301391716
 20
-1.282469474342313
 30
0.0
 40
0.203125
  1
HUS175 - FRONT VIEW
 72
     1
 11
2.892598263472505
 21
-1.282469474342313
 31
0.0
100
AcDbText
  0
LWPOLYLINE
  5
44
100
AcDbEntity
  8
USP-GEO
100
AcDbPolyline
 90
        2
 70
   129
 43
0.0
 10
4.841210930130433
 20
1.658881184409343
 10
3.924177099106422
 20
0.5936126415372183
  0
LWPOLYLINE
  5
45
100
AcDbEntity
  8
USP-GEO
100
AcDbPolyline
 90
       12
 70
   128
 43
0.0
 10
4.247598288593216
 20
4.802130869734114
 10
4.207170639907367
 20
4.815606752629397
 10
4.166742991221518
 20
4.842558518419963
 10
4.153267108326234
 20
4.896462050001095
 10
4.166742991221518
 20
4.936889698686944
 10
4.207170639907367
 20
4.977317347372793
 10
4.247598288593216
 20
4.977317347372793
 10
4.288025937279064
 20
4.977317347372793
 10
4.328453585964913
 20
4.936889698686944
 10
4.341929468860197
 20
4.896462050001095
 10
4.328453585964913
 20
4.842558518419963
 10
4.288025937279064
 20
4.815606752629397
  0
LWPOLYLINE
  5
46
100
AcDbEntity
  8
USP-GEO
100
AcDbPolyline
 90
       12
 70
   129
 43
0.0
 10
4.247598288593216
 20
1.2950323462367
 10
4.288025937279064
 20
1.308508229131984
 10
4.328453585964913
 20
1.348935877817833
 10
4.341929468860197
 20
1.389363526503682
 10
4.328453585964913
 20
1.429791175189532
 10
4.288025937279064
 20
1.470218823875381
 10
4.247598288593216
 20
1.483694706770663
 10
4.207170639907367
 20
1.470218823875381
 10
4.166742991221518
 20
1.429791175189532
 10
4.153267108326234
 20
1.389363526503682
 10
4.166742991221518
 20
1.348935877817833
 10
4.207170639907367
 20
1.308508229131984
  0
LWPOLYLINE
  5
47
100
AcDbEntity
  8
USP-GEO
100
AcDbPolyline
 90
       12
 70
   128
 43
0.0
 10
4.247598288593216
 20
2.805678818797931
 10
4.207170639907367
 20
2.819154701693214
 10
4.166742991221518
 20
2.84610646748378
 10
4.153267108326234
 20
2.886534116169629
 10
4.166742991221518
 20
2.94043764775076
 10
4.207170639907367
 20
2.967389413541328
 10
4.247598288593216
 20
2.98086529643661
 10
4.288025937279064
 20
2.967389413541328
 10
4.328453585964913
 20
2.94043764775076
 10
4.341929468860197
 20
2.886534116169629
 10
4.328453585964913
 20
2.84610646748378
 10
4.288025937279064
 20
2.819154701693214
  0
LWPOLYLINE
  5
48
100
AcDbEntity
  8
USP-GEO
100
AcDbPolyline
 90
       12
 70
   128
 43
0.0
 10
4.247598288593216
 20
3.80356794719364
 10
4.207170639907367
 20
3.817043830088923
 10
4.166742991221518
 20
3.843995595879489
 10
4.153267108326234
 20
3.897899127460622
 10
4.166742991221518
 20
3.938326776146471
 10
4.207170639907367
 20
3.965278541937037
 10
4.247598288593216
 20
3.97875442483232
 10
4.288025937279064
 20
3.965278541937037
 10
4.328453585964913
 20
3.938326776146471
 10
4.341929468860197
 20
3.897899127460622
 10
4.328453585964913
 20
3.843995595879489
 10
4.288025937279064
 20
3.817043830088923
  0
LWPOLYLINE
  5
49
100
AcDbEntity
  8
USP-GEO
100
AcDbPolyline
 90
       22
 70
   128
 43
0.0
 10
5.609336255161569
 20
4.343277057149726
 10
5.703667435428549
 20
4.397180588730858
 10
5.758244761154443
 20
4.478035886102556
 10
5.785196526945011
 20
4.572367066369538
 10
5.785196526945011
 20
5.422021482917134
 10
3.843321801734724
 20
5.422021482917134
 10
3.789418270153593
 20
5.422021482917134
 10
3.789418270153593
 20
4.572367066369538
 10
3.789418270153593
 20
4.478035886102556
 10
3.789418270153593
 20
4.397180588730858
 10
3.789418270153593
 20
4.343277057149726
 10
3.789418270153593
 20
4.248945876882745
 10
3.789418270153593
 20
4.100711165034631
 10
3.789418270153593
 20
3.924850893251187
 10
3.789418270153593
 20
2.953913530646044
 10
3.789418270153593
 20
2.495059718061655
 10
3.789418270153593
 20
2.050355582517315
 10
3.789418270153593
 20
1.658881184409343
 10
3.789418270153593
 20
0.161710594743397
 10
3.789418270153593
 20
0.1347588289528314
 10
3.789418270153593
 20
0.1078070631622641
 10
3.789418270153593
 20
0.0808552973716985
  0
LWPOLYLINE
  5
4A
100
AcDbEntity
  8
USP-GEO
100
AcDbPolyline
 90
        2
 70
   129
 43
0.0
 10
1.941874725210286
 20
0.4858055783749542
 10
0.9439855968145778
 20
1.658881184409343
  0
LWPOLYLINE
  5
4B
100
AcDbEntity
  8
USP-GEO
100
AcDbPolyline
 90
        4
 70
   128
 43
0.0
 10
1.995778256791417
 20
0.161710594743397
 10
1.995778256791417
 20
1.658881184409343
 10
1.941874725210286
 20
1.658881184409343
 10
1.941874725210286
 20
0.161710594743397
  0
LWPOLYLINE
  5
4C
100
AcDbEntity
  8
USP-GEO
100
AcDbPolyline
 90
        2
 70
   128
 43
0.0
 10
3.843321801734724
 20
0.161710594743397
 10
3.843321801734724
 20
1.658881184409343
  0
LWPOLYLINE
  5
4D
100
AcDbEntity
  8
USP-GEO
100
AcDbPolyline
 90
        7
 70
   128
 43
0.0
 10
3.843321801734724
 20
3.924850893251187
 10
3.843321801734724
 20
2.953913530646044
 10
3.843321801734724
 20
2.495059718061655
 10
3.843321801734724
 20
2.050355582517315
 10
3.843321801734724
 20
1.658881184409343
 10
3.789418270153593
 20
1.658881184409343
 10
3.789418270153593
 20
0.161710594743397
  0
LWPOLYLINE
  5
4E
100
AcDbEntity
  8
USP-GEO
100
AcDbPolyline
 90
       11
 70
   128
 43
0.0
 10
1.941874725210286
 20
0.0808552973716985
 10
1.941874725210286
 20
0.0
 10
2.265295914697079
 20
0.0
 10
2.278771797592362
 20
0.0
 10
2.305723563382928
 20
0.0
 10
2.360300889108824
 20
0.0
 10
2.360300889108824
 20
0.0539035315811329
 10
2.305723563382928
 20
0.0539035315811329
 10
2.278771797592362
 20
0.0539035315811329
 10
2.265295914697079
 20
0.0539035315811329
 10
2.265295914697079
 20
0.0
  0
LWPOLYLINE
  5
4F
100
AcDbEntity
  8
USP-GEO
100
AcDbPolyline
 90
       19
 70
   128
 43
0.0
 10
3.519900612247932
 20
0.0539035315811329
 10
3.789418270153593
 20
0.0539035315811329
 10
3.519900612247932
 20
0.0539035315811329
 10
3.506424729352648
 20
0.0539035315811329
 10
3.479472963562082
 20
0.0539035315811329
 10
3.424895637836186
 20
0.0539035315811329
 10
3.35751622335977
 20
0.0539035315811329
 10
3.31708857467392
 20
0.0539035315811329
 10
3.276660925988071
 20
0.0539035315811329
 10
3.263185043092789
 20
0.0539035315811329
 10
2.522011483852221
 20
0.0539035315811329
 10
2.508535600956939
 20
0.0539035315811329
 10
2.46810795227109
 20
0.0539035315811329
 10
2.427680303585241
 20
0.0539035315811329
 10
2.360300889108824
 20
0.0539035315811329
 10
2.305723563382928
 20
0.0539035315811329
 10
2.278771797592362
 20
0.0539035315811329
 10
2.265295914697079
 20
0.0539035315811329
 10
1.995778256791417
 20
0.0539035315811329
  0
LWPOLYLINE
  5
50
100
AcDbEntity
  8
USP-GEO
100
AcDbPolyline
 90
        2
 70
   128
 43
0.0
 10
2.265295914697079
 20
0.0539035315811329
 10
1.995778256791417
 20
0.0539035315811329
  0
LWPOLYLINE
  5
51
100
AcDbEntity
  8
USP-GEO
100
AcDbPolyline
 90
        8
 70
   129
 43
0.0
 10
1.941874725210286
 20
0.161710594743397
 10
1.995778256791417
 20
0.161710594743397
 10
1.995778256791417
 20
0.1347588289528314
 10
1.995778256791417
 20
0.1078070631622641
 10
1.995778256791417
 20
0.0808552973716985
 10
1.941874725210286
 20
0.0808552973716985
 10
1.941874725210286
 20
0.1078070631622641
 10
1.941874725210286
 20
0.1347588289528314
  0
LWPOLYLINE
  5
52
100
AcDbEntity
  8
USP-GEO
100
AcDbPolyline
 90
        2
 70
   129
 43
0.0
 10
1.995778256791417
 20
0.0808552973716985
 10
1.995778256791417
 20
0.0539035315811329
  0
LWPOLYLINE
  5
53
100
AcDbEntity
  8
USP-GEO
100
AcDbPolyline
 90
        5
 70
   128
 43
0.0
 10
1.941874725210286
 20
1.173075606034389
 10
1.861019427838588
 20
1.078744425767409
 10
1.820591779152739
 20
0.9170338310240122
 10
1.861019427838588
 20
0.768799119175899
 10
1.941874725210286
 20
0.6744679389089168
  0
LWPOLYLINE
  5
54
100
AcDbEntity
  8
USP-GEO
100
AcDbPolyline
 90
       16
 70
   129
 43
0.0
 10
1.887971193629153
 20
0.8631302994428793
 10
1.874495310733871
 20
0.8496544165475974
 10
1.861019427838588
 20
0.8361785336523137
 10
1.847543544943304
 20
0.8496544165475974
 10
1.834067662048022
 20
0.8631302994428793
 10
1.820591779152739
 20
0.8900820652334449
 10
1.820591779152739
 20
0.9170338310240122
 10
1.820591779152739
 20
0.9439855968145778
 10
1.834067662048022
 20
0.9709373626051434
 10
1.847543544943304
 20
0.9978891283957107
 10
1.861019427838588
 20
0.9978891283957107
 10
1.874495310733871
 20
0.9978891283957107
 10
1.887971193629153
 20
0.9709373626051434
 10
1.901447076524437
 20
0.9574614797098615
 10
1.901447076524437
 20
0.9170338310240122
 10
1.901447076524437
 20
0.8900820652334449
  0
LWPOLYLINE
  5
55
100
AcDbEntity
  8
USP-GEO
100
AcDbPolyline
 90
        7
 70
   128
 43
0.0
 10
1.887971193629153
 20
0.984413245500427
 10
1.887971193629153
 20
0.9709373626051434
 10
1.874495310733871
 20
0.9574614797098615
 10
1.874495310733871
 20
0.9170338310240122
 10
1.874495310733871
 20
0.8900820652334449
 10
1.887971193629153
 20
0.8631302994428793
 10
1.888644987773918
 20
0.8631302994428793
  0
LWPOLYLINE
  5
56
100
AcDbEntity
  8
USP-GEO
100
AcDbPolyline
 90
        4
 70
   128
 43
0.0
 10
2.522011483852221
 20
0.0
 10
3.263185043092789
 20
0.0
 10
3.263185043092789
 20
0.0539035315811329
 10
2.522011483852221
 20
0.0539035315811329
  0
LWPOLYLINE
  5
57
100
AcDbEntity
  8
USP-GEO
100
AcDbPolyline
 90
        8
 70
   128
 43
0.0
 10
2.427680303585241
 20
0.0
 10
2.46810795227109
 20
0.0
 10
2.508535600956939
 20
0.0
 10
2.522011483852221
 20
0.0
 10
2.522011483852221
 20
0.0539035315811329
 10
2.508535600956939
 20
0.0539035315811329
 10
2.46810795227109
 20
0.0539035315811329
 10
2.427680303585241
 20
0.0539035315811329
  0
LWPOLYLINE
  5
58
100
AcDbEntity
  8
USP-GEO
100
AcDbPolyline
 90
        4
 70
   128
 43
0.0
 10
2.360300889108824
 20
0.0
 10
2.427680303585241
 20
0.0
 10
2.427680303585241
 20
0.0539035315811329
 10
2.360300889108824
 20
0.0539035315811329
  0
LWPOLYLINE
  5
59
100
AcDbEntity
  8
USP-GEO
100
AcDbPolyline
 90
        3
 70
   128
 43
0.0
 10
3.519900612247932
 20
0.0
 10
3.843321801734724
 20
0.0
 10
3.843321801734724
 20
0.0808552973716985
  0
LWPOLYLINE
  5
5A
100
AcDbEntity
  8
USP-GEO
100
AcDbPolyline
 90
        8
 70
   128
 43
0.0
 10
3.424895637836186
 20
0.0
 10
3.479472963562082
 20
0.0
 10
3.506424729352648
 20
0.0
 10
3.519900612247932
 20
0.0
 10
3.519900612247932
 20
0.0539035315811329
 10
3.506424729352648
 20
0.0539035315811329
 10
3.479472963562082
 20
0.0539035315811329
 10
3.424895637836186
 20
0.0539035315811329
  0
LWPOLYLINE
  5
5B
100
AcDbEntity
  8
USP-GEO
100
AcDbPolyline
 90
        4
 70
   128
 43
0.0
 10
3.35751622335977
 20
0.0
 10
3.424895637836186
 20
0.0
 10
3.424895637836186
 20
0.0539035315811329
 10
3.35751622335977
 20
0.0539035315811329
  0
LWPOLYLINE
  5
5C
100
AcDbEntity
  8
USP-GEO
100
AcDbPolyline
 90
        8
 70
   128
 43
0.0
 10
3.263185043092789
 20
0.0
 10
3.276660925988071
 20
0.0
 10
3.31708857467392
 20
0.0
 10
3.35751622335977
 20
0.0
 10
3.35751622335977
 20
0.0539035315811329
 10
3.31708857467392
 20
0.0539035315811329
 10
3.276660925988071
 20
0.0539035315811329
 10
3.263185043092789
 20
0.0539035315811329
  0
LWPOLYLINE
  5
5D
100
AcDbEntity
  8
USP-GEO
100
AcDbPolyline
 90
        8
 70
   129
 43
0.0
 10
3.843321801734724
 20
0.0808552973716985
 10
3.789418270153593
 20
0.0808552973716985
 10
3.789418270153593
 20
0.1078070631622641
 10
3.789418270153593
 20
0.1347588289528314
 10
3.789418270153593
 20
0.161710594743397
 10
3.843321801734724
 20
0.161710594743397
 10
3.843321801734724
 20
0.1347588289528314
 10
3.843321801734724
 20
0.1078070631622641
  0
LWPOLYLINE
  5
5E
100
AcDbEntity
  8
USP-GEO
100
AcDbPolyline
 90
        2
 70
   129
 43
0.0
 10
3.789418270153593
 20
0.0539035315811329
 10
3.789418270153593
 20
0.0808552973716985
  0
LWPOLYLINE
  5
5F
100
AcDbEntity
  8
USP-GEO
100
AcDbPolyline
 90
        7
 70
   128
 43
0.0
 10
3.897225333315857
 20
0.7957508849664646
 10
3.897225333315857
 20
0.7822750020711809
 10
3.910701216211139
 20
0.768799119175899
 10
3.910701216211139
 20
0.7283714704900497
 10
3.910701216211139
 20
0.7014197046994824
 10
3.897225333315857
 20
0.6744679389089168
 10
3.89789912746062
 20
0.6744679389089168
  0
LWPOLYLINE
  5
60
100
AcDbEntity
  8
USP-GEO
100
AcDbPolyline
 90
        5
 70
   128
 43
0.0
 10
3.843321801734724
 20
0.4858055783749542
 10
3.924177099106422
 20
0.5801367586419364
 10
3.964604747792272
 20
0.7283714704900497
 10
3.924177099106422
 20
0.8900820652334449
 10
3.843321801734724
 20
0.984413245500427
  0
LWPOLYLINE
  5
61
100
AcDbEntity
  8
USP-GEO
100
AcDbPolyline
 90
       16
 70
   129
 43
0.0
 10
3.897225333315857
 20
0.6744679389089168
 10
3.883749450420573
 20
0.7014197046994824
 10
3.883749450420573
 20
0.7283714704900497
 10
3.883749450420573
 20
0.768799119175899
 10
3.897225333315857
 20
0.7822750020711809
 10
3.910701216211139
 20
0.8092267678617481
 10
3.924177099106422
 20
0.8092267678617481
 10
3.937652982001706
 20
0.8092267678617481
 10
3.951128864896988
 20
0.7822750020711809
 10
3.964604747792272
 20
0.768799119175899
 10
3.964604747792272
 20
0.7283714704900497
 10
3.964604747792272
 20
0.7014197046994824
 10
3.951128864896988
 20
0.6744679389089168
 10
3.937652982001706
 20
0.6609920560136331
 10
3.924177099106422
 20
0.6609920560136331
 10
3.910701216211139
 20
0.6609920560136331
  0
LWPOLYLINE
  5
62
100
AcDbEntity
  8
USP-GEO
100
AcDbPolyline
 90
        4
 70
   128
 43
0.0
 10
1.995778256791417
 20
2.953913530646044
 10
1.995778256791417
 20
3.924850893251187
 10
1.941874725210286
 20
3.924850893251187
 10
1.941874725210286
 20
2.953913530646044
  0
LWPOLYLINE
  5
63
100
AcDbEntity
  8
USP-GEO
100
AcDbPolyline
 90
        2
 70
   128
 43
0.0
 10
0.6879438218041987
 20
2.050355582517315
 10
0.9439855968145778
 20
1.658881184409343
  0
LWPOLYLINE
  5
64
100
AcDbEntity
  8
USP-GEO
100
AcDbPolyline
 90
       12
 70
   129
 43
0.0
 10
0.7418473533853316
 20
2.441156186480524
 10
0.7822750020711809
 20
2.46810795227109
 10
0.82270265075703
 20
2.481583835166373
 10
0.8766061823381612
 20
2.46810795227109
 10
0.9035579481287285
 20
2.441156186480524
 10
0.9170338310240104
 20
2.387252654899391
 10
0.9035579481287285
 20
2.346825006213542
 10
0.8766061823381612
 20
2.306397357527693
 10
0.82270265075703
 20
2.306397357527693
 10
0.7822750020711809
 20
2.306397357527693
 10
0.7418473533853316
 20
2.346825006213542
 10
0.7418473533853316
 20
2.387252654899391
  0
LWPOLYLINE
  5
65
100
AcDbEntity
  8
USP-GEO
100
AcDbPolyline
 90
        8
 70
   128
 43
0.0
 10
1.995778256791417
 20
1.658881184409343
 10
1.995778256791417
 20
2.050355582517315
 10
1.995778256791417
 20
2.495059718061655
 10
1.995778256791417
 20
2.953913530646044
 10
1.941874725210286
 20
2.953913530646044
 10
1.941874725210286
 20
2.495059718061655
 10
1.941874725210286
 20
2.050355582517315
 10
1.941874725210286
 20
1.658881184409343
  0
LWPOLYLINE
  5
66
100
AcDbEntity
  8
USP-GEO
100
AcDbPolyline
 90
        5
 70
   128
 43
0.0
 10
1.941874725210286
 20
2.670919989845099
 10
1.861019427838588
 20
2.575915015433354
 10
1.820591779152739
 20
2.427680303585241
 10
1.861019427838588
 20
2.265969708841844
 10
1.941874725210286
 20
2.171638528574863
  0
CIRCLE
  5
67
100
AcDbEntity
  8
USP-GEO
100
AcDbCircle
 10
1.535510832766011
 20
1.393077567147898
 30
0.0
 40
0.09
  0
LWPOLYLINE
  5
68
100
AcDbEntity
  8
USP-GEO
100
AcDbPolyline
 90
       12
 70
   129
 43
0.0
 10
1.456742940980097
 20
1.348935877817833
 10
1.443267058084813
 20
1.389363526503682
 10
1.456742940980097
 20
1.429791175189532
 10
1.497170589665946
 20
1.470218823875381
 10
1.537598238351794
 20
1.483694706770663
 10
1.578025887037643
 20
1.470218823875381
 10
1.618453535723492
 20
1.429791175189532
 10
1.631929418618776
 20
1.389363526503682
 10
1.618453535723492
 20
1.348935877817833
 10
1.578025887037643
 20
1.308508229131984
 10
1.537598238351794
 20
1.2950323462367
 10
1.497170589665946
 20
1.308508229131984
  0
LWPOLYLINE
  5
69
100
AcDbEntity
  8
USP-GEO
100
AcDbPolyline
 90
       16
 70
   129
 43
0.0
 10
1.887971193629153
 20
2.360300889108826
 10
1.874495310733871
 20
2.346825006213542
 10
1.861019427838588
 20
2.346825006213542
 10
1.847543544943304
 20
2.346825006213542
 10
1.834067662048022
 20
2.360300889108826
 10
1.820591779152739
 20
2.387252654899391
 10
1.820591779152739
 20
2.427680303585241
 10
1.820591779152739
 20
2.454632069375808
 10
1.834067662048022
 20
2.481583835166373
 10
1.847543544943304
 20
2.495059718061655
 10
1.861019427838588
 20
2.495059718061655
 10
1.874495310733871
 20
2.495059718061655
 10
1.887971193629153
 20
2.481583835166373
 10
1.901447076524437
 20
2.454632069375808
 10
1.901447076524437
 20
2.427680303585241
 10
1.901447076524437
 20
2.387252654899391
  0
LWPOLYLINE
  5
6A
100
AcDbEntity
  8
USP-GEO
100
AcDbPolyline
 90
       12
 70
   129
 43
0.0
 10
1.443267058084813
 20
2.886534116169629
 10
1.456742940980097
 20
2.94043764775076
 10
1.497170589665946
 20
2.967389413541328
 10
1.537598238351794
 20
2.98086529643661
 10
1.578025887037643
 20
2.967389413541328
 10
1.618453535723492
 20
2.94043764775076
 10
1.631929418618776
 20
2.886534116169629
 10
1.618453535723492
 20
2.84610646748378
 10
1.578025887037643
 20
2.819154701693214
 10
1.537598238351794
 20
2.805678818797931
 10
1.497170589665946
 20
2.819154701693214
 10
1.456742940980097
 20
2.84610646748378
  0
LWPOLYLINE
  5
6B
100
AcDbEntity
  8
USP-GEO
100
AcDbPolyline
 90
        7
 70
   128
 43
0.0
 10
1.888644987773918
 20
2.481583835166373
 10
1.887971193629153
 20
2.481583835166373
 10
1.874495310733871
 20
2.454632069375808
 10
1.874495310733871
 20
2.427680303585241
 10
1.874495310733871
 20
2.387252654899391
 10
1.887971193629153
 20
2.360300889108826
 10
1.888644987773918
 20
2.360300889108826
  0
LWPOLYLINE
  5
6C
100
AcDbEntity
  8
USP-GEO
100
AcDbPolyline
 90
       12
 70
   129
 43
0.0
 10
0.82270265075703
 20
4.478035886102556
 10
0.8766061823381612
 20
4.464560003207274
 10
0.9035579481287285
 20
4.437608237416707
 10
0.9170338310240104
 20
4.397180588730858
 10
0.9035579481287285
 20
4.343277057149726
 10
0.8766061823381612
 20
4.31632529135916
 10
0.82270265075703
 20
4.302849408463877
 10
0.7822750020711809
 20
4.31632529135916
 10
0.7418473533853316
 20
4.343277057149726
 10
0.7418473533853316
 20
4.397180588730858
 10
0.7418473533853316
 20
4.437608237416707
 10
0.7822750020711809
 20
4.464560003207274
  0
LWPOLYLINE
  5
6D
100
AcDbEntity
  8
USP-GEO
100
AcDbPolyline
 90
        8
 70
   128
 43
0.0
 10
1.941874725210286
 20
4.343277057149726
 10
1.941874725210286
 20
4.397180588730858
 10
1.941874725210286
 20
4.478035886102556
 10
1.941874725210286
 20
4.572367066369538
 10
1.995778256791417
 20
4.572367066369538
 10
1.995778256791417
 20
4.478035886102556
 10
1.995778256791417
 20
4.397180588730858
 10
1.995778256791417
 20
4.343277057149726
  0
LWPOLYLINE
  5
6E
100
AcDbEntity
  8
USP-GEO
100
AcDbPolyline
 90
        5
 70
   128
 43
0.0
 10
1.941874725210286
 20
4.168090579511046
 10
1.861019427838588
 20
4.073759399244066
 10
1.820591779152739
 20
3.924850893251187
 10
1.861019427838588
 20
3.76314029850779
 10
1.941874725210286
 20
3.66880911824081
  0
LWPOLYLINE
  5
6F
100
AcDbEntity
  8
USP-GEO
100
AcDbPolyline
 90
       16
 70
   129
 43
0.0
 10
1.887971193629153
 20
3.870947361670054
 10
1.874495310733871
 20
3.843995595879489
 10
1.861019427838588
 20
3.843995595879489
 10
1.847543544943304
 20
3.843995595879489
 10
1.834067662048022
 20
3.870947361670054
 10
1.820591779152739
 20
3.897899127460622
 10
1.820591779152739
 20
3.924850893251187
 10
1.820591779152739
 20
3.951802659041753
 10
1.834067662048022
 20
3.97875442483232
 10
1.847543544943304
 20
3.992230307727602
 10
1.861019427838588
 20
4.005706190622886
 10
1.874495310733871
 20
3.992230307727602
 10
1.887971193629153
 20
3.97875442483232
 10
1.901447076524437
 20
3.951802659041753
 10
1.901447076524437
 20
3.924850893251187
 10
1.901447076524437
 20
3.897899127460622
  0
LWPOLYLINE
  5
70
100
AcDbEntity
  8
USP-GEO
100
AcDbPolyline
 90
       12
 70
   129
 43
0.0
 10
1.443267058084813
 20
3.897899127460622
 10
1.456742940980097
 20
3.938326776146471
 10
1.497170589665946
 20
3.965278541937037
 10
1.537598238351794
 20
3.97875442483232
 10
1.578025887037643
 20
3.965278541937037
 10
1.618453535723492
 20
3.938326776146471
 10
1.631929418618776
 20
3.897899127460622
 10
1.618453535723492
 20
3.843995595879489
 10
1.578025887037643
 20
3.817043830088923
 10
1.537598238351794
 20
3.80356794719364
 10
1.497170589665946
 20
3.817043830088923
 10
1.456742940980097
 20
3.843995595879489
  0
LWPOLYLINE
  5
71
100
AcDbEntity
  8
USP-GEO
100
AcDbPolyline
 90
        7
 70
   128
 43
0.0
 10
1.887971193629153
 20
3.857471478774773
 10
1.887971193629153
 20
3.870947361670054
 10
1.874495310733871
 20
3.897899127460622
 10
1.874495310733871
 20
3.924850893251187
 10
1.874495310733871
 20
3.951802659041753
 10
1.887971193629153
 20
3.97875442483232
 10
1.888644987773918
 20
3.97875442483232
  0
LWPOLYLINE
  5
72
100
AcDbEntity
  8
USP-GEO
100
AcDbPolyline
 90
        8
 70
   128
 43
0.0
 10
1.995778256791417
 20
3.924850893251187
 10
1.995778256791417
 20
4.100711165034631
 10
1.995778256791417
 20
4.248945876882745
 10
1.995778256791417
 20
4.343277057149726
 10
1.941874725210286
 20
4.343277057149726
 10
1.941874725210286
 20
4.248945876882745
 10
1.941874725210286
 20
4.100711165034631
 10
1.941874725210286
 20
3.924850893251187
  0
LWPOLYLINE
  5
73
100
AcDbEntity
  8
USP-GEO
100
AcDbPolyline
 90
       12
 70
   129
 43
0.0
 10
1.456742940980097
 20
4.936889698686944
 10
1.497170589665946
 20
4.977317347372793
 10
1.537598238351794
 20
4.977317347372793
 10
1.578025887037643
 20
4.977317347372793
 10
1.618453535723492
 20
4.936889698686944
 10
1.631929418618776
 20
4.896462050001095
 10
1.618453535723492
 20
4.842558518419963
 10
1.578025887037643
 20
4.815606752629397
 10
1.537598238351794
 20
4.802130869734114
 10
1.497170589665946
 20
4.815606752629397
 10
1.456742940980097
 20
4.842558518419963
 10
1.443267058084813
 20
4.896462050001095
  0
LWPOLYLINE
  5
74
100
AcDbEntity
  8
USP-GEO
100
AcDbPolyline
 90
        4
 70
   128
 43
0.0
 10
1.995778256791417
 20
4.572367066369538
 10
1.995778256791417
 20
5.422021482917134
 10
1.941874725210286
 20
5.422021482917134
 10
1.941874725210286
 20
4.572367066369538
  0
LWPOLYLINE
  5
75
100
AcDbEntity
  8
USP-GEO
100
AcDbPolyline
 90
        5
 70
   128
 43
0.0
 10
3.789418270153593
 20
3.924850893251187
 10
3.789418270153593
 20
2.953913530646044
 10
3.789418270153593
 20
2.495059718061655
 10
3.789418270153593
 20
2.050355582517315
 10
3.789418270153593
 20
1.658881184409343
  0
LWPOLYLINE
  5
76
100
AcDbEntity
  8
USP-GEO
100
AcDbPolyline
 90
        5
 70
   128
 43
0.0
 10
3.843321801734724
 20
1.982976168040901
 10
3.924177099106422
 20
2.077307348307881
 10
3.964604747792272
 20
2.239017943051278
 10
3.924177099106422
 20
2.387252654899391
 10
3.843321801734724
 20
2.481583835166373
  0
LWPOLYLINE
  5
77
100
AcDbEntity
  8
USP-GEO
100
AcDbPolyline
 90
       16
 70
   129
 43
0.0
 10
3.897225333315857
 20
2.171638528574863
 10
3.883749450420573
 20
2.198590294365429
 10
3.883749450420573
 20
2.239017943051278
 10
3.883749450420573
 20
2.265969708841844
 10
3.897225333315857
 20
2.292921474632411
 10
3.910701216211139
 20
2.306397357527693
 10
3.924177099106422
 20
2.306397357527693
 10
3.937652982001706
 20
2.306397357527693
 10
3.951128864896988
 20
2.292921474632411
 10
3.964604747792272
 20
2.265969708841844
 10
3.964604747792272
 20
2.239017943051278
 10
3.964604747792272
 20
2.198590294365429
 10
3.951128864896988
 20
2.171638528574863
 10
3.937652982001706
 20
2.158162645679579
 10
3.924177099106422
 20
2.158162645679579
 10
3.910701216211139
 20
2.158162645679579
  0
LWPOLYLINE
  5
78
100
AcDbEntity
  8
USP-GEO
100
AcDbPolyline
 90
        7
 70
   128
 43
0.0
 10
3.89789912746062
 20
2.171638528574863
 10
3.897225333315857
 20
2.171638528574863
 10
3.910701216211139
 20
2.198590294365429
 10
3.910701216211139
 20
2.239017943051278
 10
3.910701216211139
 20
2.265969708841844
 10
3.897225333315857
 20
2.292921474632411
 10
3.89789912746062
 20
2.292921474632411
  0
LWPOLYLINE
  5
79
100
AcDbEntity
  8
USP-GEO
100
AcDbPolyline
 90
        2
 70
   128
 43
0.0
 10
3.843321801734724
 20
2.953913530646044
 10
3.789418270153593
 20
2.953913530646044
  0
LWPOLYLINE
  5
7A
100
AcDbEntity
  8
USP-GEO
100
AcDbPolyline
 90
       11
 70
   128
 43
0.0
 10
3.843321801734724
 20
4.343277057149726
 10
3.843321801734724
 20
4.248945876882745
 10
3.843321801734724
 20
4.100711165034631
 10
3.843321801734724
 20
3.924850893251187
 10
3.789418270153593
 20
3.924850893251187
 10
3.789418270153593
 20
4.100711165034631
 10
3.789418270153593
 20
4.248945876882745
 10
3.789418270153593
 20
4.343277057149726
 10
3.789418270153593
 20
4.397180588730858
 10
3.789418270153593
 20
4.478035886102556
 10
3.789418270153593
 20
4.572367066369538
  0
LWPOLYLINE
  5
7B
100
AcDbEntity
  8
USP-GEO
100
AcDbPolyline
 90
        9
 70
   128
 43
0.0
 10
3.843321801734724
 20
4.572367066369538
 10
3.843321801734724
 20
5.422021482917134
 10
3.789418270153593
 20
5.422021482917134
 10
3.789418270153593
 20
4.572367066369538
 10
3.843321801734724
 20
4.572367066369538
 10
3.843321801734724
 20
4.478035886102556
 10
3.843321801734724
 20
4.397180588730858
 10
3.843321801734724
 20
4.343277057149726
 10
3.789418270153593
 20
4.343277057149726
  0
LWPOLYLINE
  5
7C
100
AcDbEntity
  8
USP-GEO
100
AcDbPolyline
 90
        5
 70
   128
 43
0.0
 10
3.843321801734724
 20
3.480146757706847
 10
3.924177099106422
 20
3.574477937973828
 10
3.964604747792272
 20
3.736188532717225
 10
3.924177099106422
 20
3.884423244565338
 10
3.843321801734724
 20
3.97875442483232
  0
LWPOLYLINE
  5
7D
100
AcDbEntity
  8
USP-GEO
100
AcDbPolyline
 90
       16
 70
   129
 43
0.0
 10
3.883749450420573
 20
3.76314029850779
 10
3.897225333315857
 20
3.790092064298358
 10
3.910701216211139
 20
3.80356794719364
 10
3.924177099106422
 20
3.817043830088923
 10
3.937652982001706
 20
3.80356794719364
 10
3.951128864896988
 20
3.790092064298358
 10
3.964604747792272
 20
3.76314029850779
 10
3.964604747792272
 20
3.736188532717225
 10
3.964604747792272
 20
3.709236766926659
 10
3.951128864896988
 20
3.682285001136092
 10
3.937652982001706
 20
3.66880911824081
 10
3.924177099106422
 20
3.655333235345526
 10
3.910701216211139
 20
3.66880911824081
 10
3.897225333315857
 20
3.682285001136092
 10
3.883749450420573
 20
3.709236766926659
 10
3.883749450420573
 20
3.736188532717225
  0
LWPOLYLINE
  5
7E
100
AcDbEntity
  8
USP-GEO
100
AcDbPolyline
 90
        5
 70
   128
 43
0.0
 10
3.897225333315857
 20
3.682285001136092
 10
3.910701216211139
 20
3.709236766926659
 10
3.910701216211139
 20
3.736188532717225
 10
3.910701216211139
 20
3.76314029850779
 10
3.897225333315857
 20
3.790092064298358
  0
LWPOLYLINE
  5
7F
100
AcDbEntity
  8
USP-GEO
100
AcDbPolyline
 90
        2
 70
   129
 43
0.0
 10
5.326342714360624
 20
3.924850893251187
 10
5.326342714360624
 20
2.953913530646044
  0
LWPOLYLINE
  5
80
100
AcDbEntity
  8
USP-GEO
100
AcDbPolyline
 90
        4
 70
   128
 43
0.0
 10
4.841210930130433
 20
1.658881184409343
 10
5.097252705140812
 20
2.050355582517315
 10
5.258963299884209
 20
2.495059718061655
 10
5.326342714360624
 20
2.953913530646044
  0
LWPOLYLINE
  5
81
100
AcDbEntity
  8
USP-GEO
100
AcDbPolyline
 90
        2
 70
   128
 43
0.0
 10
4.288025937279064
 20
1.308508229131984
 10
4.247598288593216
 20
1.2950323462367
  0
LWPOLYLINE
  5
82
100
AcDbEntity
  8
USP-GEO
100
AcDbPolyline
 90
        2
 70
   129
 43
0.0
 10
4.247598288593216
 20
2.805678818797931
 10
4.288025937279064
 20
2.819154701693214
  0
LWPOLYLINE
  5
83
100
AcDbEntity
  8
USP-GEO
100
AcDbPolyline
 90
       12
 70
   128
 43
0.0
 10
5.00292152487383
 20
2.306397357527693
 10
5.043349173559679
 20
2.346825006213542
 10
5.043349173559679
 20
2.387252654899391
 10
5.043349173559679
 20
2.441156186480524
 10
5.00292152487383
 20
2.46810795227109
 10
4.962493876187981
 20
2.481583835166373
 10
4.908590344606849
 20
2.46810795227109
 10
4.881638578816282
 20
2.441156186480524
 10
4.868162695921
 20
2.387252654899391
 10
4.881638578816282
 20
2.346825006213542
 10
4.908590344606849
 20
2.306397357527693
 10
4.962493876187981
 20
2.306397357527693
  0
LWPOLYLINE
  5
84
100
AcDbEntity
  8
USP-GEO
100
AcDbPolyline
 90
        2
 70
   129
 43
0.0
 10
4.962493876187981
 20
2.306397357527693
 10
5.00292152487383
 20
2.306397357527693
  0
LWPOLYLINE
  5
85
100
AcDbEntity
  8
USP-GEO
100
AcDbPolyline
 90
       12
 70
   128
 43
0.0
 10
4.962493876187981
 20
4.302849408463877
 10
4.908590344606849
 20
4.31632529135916
 10
4.881638578816282
 20
4.343277057149726
 10
4.868162695921
 20
4.397180588730858
 10
4.881638578816282
 20
4.437608237416707
 10
4.908590344606849
 20
4.464560003207274
 10
4.962493876187981
 20
4.478035886102556
 10
5.00292152487383
 20
4.464560003207274
 10
5.043349173559679
 20
4.437608237416707
 10
5.043349173559679
 20
4.397180588730858
 10
5.043349173559679
 20
4.343277057149726
 10
5.00292152487383
 20
4.31632529135916
  0
LWPOLYLINE
  5
86
100
AcDbEntity
  8
USP-GEO
100
AcDbPolyline
 90
        2
 70
   129
 43
0.0
 10
4.247598288593216
 20
3.80356794719364
 10
4.288025937279064
 20
3.817043830088923
  0
LWPOLYLINE
  5
87
100
AcDbEntity
  8
USP-GEO
100
AcDbPolyline
 90
        2
 70
   129
 43
0.0
 10
4.962493876187981
 20
4.302849408463877
 10
5.00292152487383
 20
4.31632529135916
  0
LWPOLYLINE
  5
88
100
AcDbEntity
  8
USP-GEO
100
AcDbPolyline
 90
        2
 70
   129
 43
0.0
 10
4.247598288593216
 20
4.802130869734114
 10
4.288025937279064
 20
4.815606752629397
  0
LWPOLYLINE
  5
89
100
AcDbEntity
  8
USP-GEO
100
AcDbPolyline
 90
        2
 70
   129
 43
0.0
 10
5.609336255161569
 20
4.343277057149726
 10
5.461101543313453
 20
4.248945876882745
  0
LWPOLYLINE
  5
8A
100
AcDbEntity
  8
USP-GEO
100
AcDbPolyline
 90
        3
 70
   128
 43
0.0
 10
5.461101543313453
 20
4.248945876882745
 10
5.353294480151189
 20
4.100711165034631
 10
5.326342714360624
 20
3.924850893251187
  0
LWPOLYLINE
  5
8B
100
AcDbEntity
  8
USP-GEO
100
AcDbPolyline
 90
       12
 70
   128
 43
0.0
 10
5.474577426208735
 20
5.058172644744492
 10
5.420673894627604
 20
5.071648527639775
 10
5.393722128837039
 20
5.098600293430341
 10
5.380246245941755
 20
5.13902794211619
 10
5.393722128837039
 20
5.192931473697322
 10
5.420673894627604
 20
5.219883239487888
 10
5.474577426208735
 20
5.233359122383172
 10
5.515005074894585
 20
5.219883239487888
 10
5.541956840685152
 20
5.192931473697322
 10
5.555432723580434
 20
5.13902794211619
 10
5.541956840685152
 20
5.098600293430341
 10
5.515005074894585
 20
5.071648527639775
  0
LWPOLYLINE
  5
8C
100
AcDbEntity
  8
USP-GEO
100
AcDbPolyline
 90
        2
 70
   129
 43
0.0
 10
5.474577426208735
 20
5.058172644744492
 10
5.515005074894585
 20
5.071648527639775
  0
ENDBLK
  5
8E
100
AcDbEntity
  8
0
100
AcDbBlockEnd
  0
BLOCK
  5
B4
100
AcDbEntity
  8
0
100
AcDbBlockBegin
  2
HUS175_S
 70
     0
 10
0.0
 20
0.0
 30
0.0
  3
HUS175_S
  1

  0
LWPOLYLINE
  5
91
100
AcDbEntity
  8
USP-GEO
100
AcDbPolyline
 90
        2
 70
   129
 43
0.0
 10
3.370992106255054
 20
0.0
 10
0.377324721067926
 20
0.0
  0
LWPOLYLINE
  5
92
100
AcDbEntity
  8
USP-GEO
100
AcDbPolyline
 90
       20
 70
   128
 43
0.0
 10
3.370992106255054
 20
0.0808552973716985
 10
3.370992106255054
 20
0.0
 10
3.370992106255054
 20
0.0808552973716985
 10
3.370992106255054
 20
0.1078070631622641
 10
3.357516223359771
 20
0.1347588289528314
 10
3.344040340464489
 20
0.161710594743397
 10
2.063157671267834
 20
1.658881184409343
 10
1.807115896257457
 20
2.050355582517315
 10
1.644731507369296
 20
2.495059718061655
 10
1.590827975788164
 20
2.953913530646044
 10
1.590827975788164
 20
3.924850893251187
 10
1.550400327102314
 20
4.100711165034631
 10
1.44259326394005
 20
4.248945876882745
 10
1.294358552091937
 20
4.343277057149726
 10
1.213503254720238
 20
4.397180588730858
 10
1.146123840243823
 20
4.478035886102556
 10
1.13264795734854
 20
4.572367066369538
 10
1.13264795734854
 20
5.422021482917134
 10
0.0673794144764157
 20
5.422021482917134
 10
0.0673794144764157
 20
4.572367066369538
  0
LWPOLYLINE
  5
93
100
AcDbEntity
  8
USP-GEO
100
AcDbPolyline
 90
        2
 70
   128
 43
0.0
 10
3.370992106255054
 20
0.0
 10
0.377324721067926
 20
0.0
  0
LWPOLYLINE
  5
94
100
AcDbEntity
  8
USP-GEO
100
AcDbPolyline
 90
        2
 70
   128
 43
0.0
 10
3.370992106255054
 20
0.0539035315811329
 10
0.377324721067926
 20
0.0539035315811329
  0
TEXT
  5
95
100
AcDbEntity
  8
USP-TXT
100
AcDbText
 10
-0.5474255045275625
 20
-1.282469474342313
 30
0.0
 40
0.203125
  1
HUS175 - LEFT SIDE VIEW
 72
     1
 11
1.720803662139104
 21
-1.282469474342313
 31
0.0
100
AcDbText
  0
LWPOLYLINE
  5
96
100
AcDbEntity
  8
USP-GEO
100
AcDbPolyline
 90
       14
 70
   128
 43
0.0
 10
0.377324721067926
 20
0.0
 10
0.377324721067926
 20
0.0808552973716985
 10
0.377324721067926
 20
0.1078070631622641
 10
0.3638488381726423
 20
0.1347588289528314
 10
0.3503729552773596
 20
0.161710594743397
 10
0.0673794144764157
 20
0.4858055783749542
 10
0.0
 20
0.4858055783749542
 10
0.0
 20
1.658881184409343
 10
0.0
 20
2.050355582517315
 10
0.0
 20
2.495059718061655
 10
0.0
 20
2.953913530646044
 10
0.0
 20
3.924850893251187
 10
0.0
 20
4.100711165034631
 10
0.0
 20
4.248945876882745
  0
LWPOLYLINE
  5
97
100
AcDbEntity
  8
USP-GEO
100
AcDbPolyline
 90
        4
 70
   129
 43
0.0
 10
0.0673794144764157
 20
0.4858055783749542
 10
0.0673794144764157
 20
1.658881184409343
 10
0.0
 20
1.658881184409343
 10
0.0
 20
0.4858055783749542
  0
LWPOLYLINE
  5
98
100
AcDbEntity
  8
USP-GEO
100
AcDbPolyline
 90
       16
 70
   128
 43
0.0
 10
0.3503729552773596
 20
0.161710594743397
 10
0.0673794144764157
 20
0.4858055783749542
 10
0.0673794144764157
 20
1.658881184409343
 10
0.0673794144764157
 20
2.050355582517315
 10
0.0673794144764157
 20
2.495059718061655
 10
0.0673794144764157
 20
2.953913530646044
 10
0.0673794144764157
 20
3.924850893251187
 10
0.0673794144764157
 20
4.100711165034631
 10
0.0673794144764157
 20
4.248945876882745
 10
0.0673794144764157
 20
4.343277057149726
 10
0.0673794144764157
 20
4.397180588730858
 10
0.0673794144764157
 20
4.478035886102556
 10
0.0673794144764157
 20
4.572367066369538
 10
0.0673794144764157
 20
5.422021482917134
 10
1.13264795734854
 20
5.422021482917134
 10
1.13264795734854
 20
4.572367066369538
  0
LWPOLYLINE
  5
99
100
AcDbEntity
  8
USP-GEO
100
AcDbPolyline
 90
        3
 70
   128
 43
0.0
 10
0.377324721067926
 20
0.1078070631622641
 10
0.377324721067926
 20
0.0808552973716985
 10
0.377324721067926
 20
0.0
  0
ARC
  5
9A
100
AcDbEntity
  8
USP-GEO
100
AcDbCircle
 10
0.2531589202449327
 20
0.0805775671477847
 30
0.0
 40
0.125
100
AcDbArc
 50
0.1281572142262865
 51
39.8477479445481
  0
LWPOLYLINE
  5
9B
100
AcDbEntity
  8
USP-GEO
100
AcDbPolyline
 90
        2
 70
   128
 43
0.0
 10
0.377324721067926
 20
0.0808552973716985
 10
0.377324721067926
 20
0.0
  0
LWPOLYLINE
  5
9C
100
AcDbEntity
  8
USP-GEO
100
AcDbPolyline
 90
       12
 70
   129
 43
0.0
 10
0.9035579481287285
 20
0.9170338310240122
 10
0.9439855968145778
 20
1.051792659976841
 10
1.038316777081559
 20
1.13264795734854
 10
1.159599723139106
 20
1.173075606034389
 10
1.280882669196653
 20
1.13264795734854
 10
1.375213849463635
 20
1.051792659976841
 10
1.402165615254201
 20
0.9170338310240122
 10
1.375213849463635
 20
0.7957508849664646
 10
1.280882669196653
 20
0.7014197046994824
 10
1.159599723139106
 20
0.6744679389089168
 10
1.038316777081559
 20
0.7014197046994824
 10
0.9439855968145778
 20
0.7957508849664646
  0
LWPOLYLINE
  5
9D
100
AcDbEntity
  8
USP-GEO
100
AcDbPolyline
 90
        9
 70
   128
 43
0.0
 10
1.281556463341417
 20
0.8496544165475974
 10
1.280882669196653
 20
0.8496544165475974
 10
1.30783443498722
 20
0.8631302994428793
 10
1.321310317882502
 20
0.8900820652334449
 10
1.321310317882502
 20
0.9170338310240122
 10
1.321310317882502
 20
0.9574614797098615
 10
1.30783443498722
 20
0.9709373626051434
 10
1.280882669196653
 20
0.9978891283957107
 10
1.281556463341417
 20
0.9978891283957107
  0
LWPOLYLINE
  5
9E
100
AcDbEntity
  8
USP-GEO
100
AcDbPolyline
 90
       16
 70
   129
 43
0.0
 10
1.226979137615521
 20
0.8900820652334449
 10
1.226979137615521
 20
0.9170338310240122
 10
1.226979137615521
 20
0.9439855968145778
 10
1.240455020510804
 20
0.9709373626051434
 10
1.26740678630137
 20
0.9978891283957107
 10
1.294358552091937
 20
0.9978891283957107
 10
1.321310317882502
 20
0.9978891283957107
 10
1.348262083673069
 20
0.9709373626051434
 10
1.361737966568352
 20
0.9574614797098615
 10
1.375213849463635
 20
0.9170338310240122
 10
1.361737966568352
 20
0.8900820652334449
 10
1.348262083673069
 20
0.8631302994428793
 10
1.321310317882502
 20
0.8496544165475974
 10
1.294358552091937
 20
0.8361785336523137
 10
1.26740678630137
 20
0.8496544165475974
 10
1.240455020510804
 20
0.8631302994428793
  0
LWPOLYLINE
  5
9F
100
AcDbEntity
  8
USP-GEO
100
AcDbPolyline
 90
        3
 70
   128
 43
0.0
 10
1.30783443498722
 20
0.876606182338163
 10
1.26740678630137
 20
0.9170338310240122
 10
1.226979137615521
 20
0.9305097139192941
  0
LWPOLYLINE
  5
A0
100
AcDbEntity
  8
USP-GEO
100
AcDbPolyline
 90
        7
 70
   128
 43
0.0
 10
0.0673794144764157
 20
2.953913530646044
 10
0.0673794144764157
 20
3.924850893251187
 10
0.0
 20
3.924850893251187
 10
0.0
 20
2.953913530646044
 10
0.0
 20
2.495059718061655
 10
0.0
 20
2.050355582517315
 10
0.0
 20
1.658881184409343
  0
LWPOLYLINE
  5
A1
100
AcDbEntity
  8
USP-GEO
100
AcDbPolyline
 90
        2
 70
   128
 43
0.0
 10
1.590827975788164
 20
2.953913530646044
 10
1.590827975788164
 20
3.924850893251187
  0
LWPOLYLINE
  5
A2
100
AcDbEntity
  8
USP-GEO
100
AcDbPolyline
 90
        5
 70
   128
 43
0.0
 10
0.0673794144764157
 20
1.658881184409343
 10
0.0673794144764157
 20
2.050355582517315
 10
0.0673794144764157
 20
2.495059718061655
 10
0.0673794144764157
 20
2.953913530646044
 10
0.0
 20
2.953913530646044
  0
LWPOLYLINE
  5
A3
100
AcDbEntity
  8
USP-GEO
100
AcDbPolyline
 90
       12
 70
   129
 43
0.0
 10
0.9035579481287285
 20
2.427680303585241
 10
0.9439855968145778
 20
2.292921474632411
 10
1.038316777081559
 20
2.198590294365429
 10
1.159599723139106
 20
2.171638528574863
 10
1.280882669196653
 20
2.198590294365429
 10
1.375213849463635
 20
2.292921474632411
 10
1.402165615254201
 20
2.427680303585241
 10
1.375213849463635
 20
2.548963249642788
 10
1.280882669196653
 20
2.643968224054534
 10
1.159599723139106
 20
2.670919989845099
 10
1.038316777081559
 20
2.643968224054534
 10
0.9439855968145778
 20
2.548963249642788
  0
LWPOLYLINE
  5
A4
100
AcDbEntity
  8
USP-GEO
100
AcDbPolyline
 90
       16
 70
   129
 43
0.0
 10
1.26740678630137
 20
2.346825006213542
 10
1.240455020510804
 20
2.360300889108826
 10
1.226979137615521
 20
2.387252654899391
 10
1.226979137615521
 20
2.427680303585241
 10
1.226979137615521
 20
2.454632069375808
 10
1.240455020510804
 20
2.481583835166373
 10
1.26740678630137
 20
2.495059718061655
 10
1.294358552091937
 20
2.495059718061655
 10
1.321310317882502
 20
2.495059718061655
 10
1.348262083673069
 20
2.481583835166373
 10
1.361737966568352
 20
2.454632069375808
 10
1.375213849463635
 20
2.427680303585241
 10
1.361737966568352
 20
2.387252654899391
 10
1.348262083673069
 20
2.360300889108826
 10
1.321310317882502
 20
2.346825006213542
 10
1.294358552091937
 20
2.346825006213542
  0
LWPOLYLINE
  5
A5
100
AcDbEntity
  8
USP-GEO
100
AcDbPolyline
 90
        9
 70
   128
 43
0.0
 10
1.26740678630137
 20
2.346825006213542
 10
1.280882669196653
 20
2.346825006213542
 10
1.30783443498722
 20
2.360300889108826
 10
1.321310317882502
 20
2.387252654899391
 10
1.321310317882502
 20
2.427680303585241
 10
1.321310317882502
 20
2.454632069375808
 10
1.30783443498722
 20
2.481583835166373
 10
1.280882669196653
 20
2.495059718061655
 10
1.281556463341417
 20
2.495059718061655
  0
LWPOLYLINE
  5
A6
100
AcDbEntity
  8
USP-GEO
100
AcDbPolyline
 90
        3
 70
   128
 43
0.0
 10
1.30783443498722
 20
2.373776772004109
 10
1.26740678630137
 20
2.427680303585241
 10
1.226979137615521
 20
2.427680303585241
  0
LWPOLYLINE
  5
A7
100
AcDbEntity
  8
USP-GEO
100
AcDbPolyline
 90
       10
 70
   129
 43
0.0
 10
0.0
 20
4.248945876882745
 10
0.0
 20
4.343277057149726
 10
0.0
 20
4.397180588730858
 10
0.0
 20
4.478035886102556
 10
0.0
 20
4.572367066369538
 10
0.0
 20
5.422021482917134
 10
0.0
 20
4.572367066369538
 10
0.0
 20
4.478035886102556
 10
0.0
 20
4.397180588730858
 10
0.0
 20
4.343277057149726
  0
LWPOLYLINE
  5
A8
100
AcDbEntity
  8
USP-GEO
100
AcDbPolyline
 90
        5
 70
   128
 43
0.0
 10
0.0
 20
4.572367066369538
 10
0.0673794144764157
 20
4.572367066369538
 10
0.0673794144764157
 20
4.478035886102556
 10
0.0673794144764157
 20
4.397180588730858
 10
0.0673794144764157
 20
4.343277057149726
  0
LWPOLYLINE
  5
A9
100
AcDbEntity
  8
USP-GEO
100
AcDbPolyline
 90
        5
 70
   128
 43
0.0
 10
0.0
 20
4.343277057149726
 10
0.0673794144764157
 20
4.343277057149726
 10
0.0673794144764157
 20
4.248945876882745
 10
0.0673794144764157
 20
4.100711165034631
 10
0.0673794144764157
 20
3.924850893251187
  0
LWPOLYLINE
  5
AA
100
AcDbEntity
  8
USP-GEO
100
AcDbPolyline
 90
        3
 70
   128
 43
0.0
 10
0.0
 20
4.248945876882745
 10
0.0
 20
4.100711165034631
 10
0.0
 20
3.924850893251187
  0
LWPOLYLINE
  5
AB
100
AcDbEntity
  8
USP-GEO
100
AcDbPolyline
 90
       12
 70
   129
 43
0.0
 10
0.3099453065915103
 20
5.206407356592605
 10
0.3908006039632088
 20
5.17945559080204
 10
0.4447041355443409
 20
5.125552059220907
 10
0.4716559013349074
 20
5.044696761849209
 10
0.4447041355443409
 20
4.977317347372793
 10
0.3908006039632088
 20
4.909937932896379
 10
0.3099453065915103
 20
4.896462050001095
 10
0.2425658921150955
 20
4.909937932896379
 10
0.1751864776386798
 20
4.977317347372793
 10
0.161710594743397
 20
5.044696761849209
 10
0.1751864776386798
 20
5.125552059220907
 10
0.2425658921150955
 20
5.17945559080204
  0
LWPOLYLINE
  5
AC
100
AcDbEntity
  8
USP-GEO
100
AcDbPolyline
 90
        2
 70
   129
 43
0.0
 10
0.0
 20
5.422021482917134
 10
0.0673794144764157
 20
5.422021482917134
  0
LWPOLYLINE
  5
AD
100
AcDbEntity
  8
USP-GEO
100
AcDbPolyline
 90
       12
 70
   129
 43
0.0
 10
0.9035579481287285
 20
3.924850893251187
 10
0.9439855968145778
 20
3.80356794719364
 10
1.038316777081559
 20
3.709236766926659
 10
1.159599723139106
 20
3.66880911824081
 10
1.280882669196653
 20
3.709236766926659
 10
1.375213849463635
 20
3.80356794719364
 10
1.402165615254201
 20
3.924850893251187
 10
1.375213849463635
 20
4.046807633453498
 10
1.280882669196653
 20
4.14113881372048
 10
1.159599723139106
 20
4.168090579511046
 10
1.038316777081559
 20
4.14113881372048
 10
0.9439855968145778
 20
4.046807633453498
  0
LWPOLYLINE
  5
AE
100
AcDbEntity
  8
USP-GEO
100
AcDbPolyline
 90
       11
 70
   128
 43
0.0
 10
1.26740678630137
 20
3.992230307727602
 10
1.294358552091937
 20
4.005706190622886
 10
1.321310317882502
 20
3.992230307727602
 10
1.348262083673069
 20
3.97875442483232
 10
1.361737966568352
 20
3.951802659041753
 10
1.375213849463635
 20
3.924850893251187
 10
1.361737966568352
 20
3.897899127460622
 10
1.348262083673069
 20
3.870947361670054
 10
1.321310317882502
 20
3.843995595879489
 10
1.294358552091937
 20
3.843995595879489
 10
1.26740678630137
 20
3.843995595879489
  0
LWPOLYLINE
  5
AF
100
AcDbEntity
  8
USP-GEO
100
AcDbPolyline
 90
       17
 70
   128
 43
0.0
 10
1.30783443498722
 20
3.870947361670054
 10
1.280882669196653
 20
3.843995595879489
 10
1.26740678630137
 20
3.843995595879489
 10
1.240455020510804
 20
3.870947361670054
 10
1.226979137615521
 20
3.897899127460622
 10
1.226979137615521
 20
3.924850893251187
 10
1.226979137615521
 20
3.951802659041753
 10
1.240455020510804
 20
3.97875442483232
 10
1.26740678630137
 20
3.992230307727602
 10
1.280882669196653
 20
3.992230307727602
 10
1.30783443498722
 20
3.97875442483232
 10
1.321310317882502
 20
3.951802659041753
 10
1.321310317882502
 20
3.924850893251187
 10
1.321310317882502
 20
3.884423244565338
 10
1.30783443498722
 20
3.870947361670054
 10
1.26740678630137
 20
3.924850893251187
 10
1.226979137615521
 20
3.938326776146471
  0
LWPOLYLINE
  5
B0
100
AcDbEntity
  8
USP-GEO
100
AcDbPolyline
 90
        2
 70
   128
 43
0.0
 10
1.44259326394005
 20
4.248945876882745
 10
1.294358552091937
 20
4.343277057149726
  0
LWPOLYLINE
  5
B1
100
AcDbEntity
  8
USP-GEO
100
AcDbPolyline
 90
        3
 70
   128
 43
0.0
 10
3.357516223359771
 20
0.1347588289528314
 10
3.344040340464489
 20
0.161710594743397
 10
2.063157671267834
 20
1.658881184409343
  0
ARC
  5
B2
100
AcDbEntity
  8
USP-GEO
100
AcDbCircle
 10
3.253158920244904
 20
0.0805775671477989
 30
0.0
 40
0.125
100
AcDbArc
 50
0.1350446401782399
 51
41.75640649211894
  0
LWPOLYLINE
  5
B3
100
AcDbEntity
  8
USP-GEO
100
AcDbPolyline
 90
        2
 70
   128
 43
0.0
 10
3.370992106255054
 20
0.0808552973716985
 10
3.370992106255054
 20
0.0
  0
ENDBLK
  5
B5
100
AcDbEntity
  8
0
100
AcDbBlockEnd
  0
ENDSEC
  0
SECTION
  2
ENTITIES
  0
INSERT
  5
3
100
AcDbEntity
  8
USP
100
AcDbBlockReference
  2
HUS175_T
 10
5.560528874672211
 20
10.13338910427606
 30
0.0
  0
INSERT
  5
39
100
AcDbEntity
  8
USP
100
AcDbBlockReference
  2
HUS175_F
 10
5.560528874672211
 20
1.285124395233211
 30
0.0
  0
INSERT
  5
8F
100
AcDbEntity
  8
USP
100
AcDbBlockReference
  2
HUS175_S
 10
0.5582811439431437
 20
1.285124395233211
 30
0.0
  0
ENDSEC
  0
SECTION
  2
OBJECTS
  0
DICTIONARY
  5
CE
102
{ACAD_XDICTIONARY
360
CF
102
}
100
AcDbDictionary
  3
ACAD_GROUP
350
CC
  3
ACAD_MLINESTYLE
350
CD
  0
DICTIONARY
  5
9
100
AcDbDictionary
280
     1
  3
ACAD_XREC_ROUNDTRIP
360
A
  0
DICTIONARY
  5
E
100
AcDbDictionary
280
     1
  3
ACAD_XREC_ROUNDTRIP
360
F
  0
DICTIONARY
  5
B6
100
AcDbDictionary
280
     1
  3
ACAD_LAYOUTSELFREF
360
B7
  0
DICTIONARY
  5
BB
100
AcDbDictionary
280
     1
  3
ACAD_LAYOUTSELFREF
360
BC
  0
DICTIONARY
  5
CF
100
AcDbDictionary
280
     1
  3
ACAD_XREC_ROUNDTRIP
360
D0
  0
DICTIONARY
  5
CC
102
{ACAD_REACTORS
330
CE
102
}
100
AcDbDictionary
  0
DICTIONARY
  5
CD
102
{ACAD_REACTORS
330
CE
102
}
100
AcDbDictionary
  3
STANDARD
350
D1
  0
XRECORD
  5
A
102
{ACAD_REACTORS
330
9
102
}
100
AcDbXrecord
102
EXTNAMES
  1
USP-GEO
  2
USP-Geo
  0
XRECORD
  5
F
102
{ACAD_REACTORS
330
E
102
}
100
AcDbXrecord
102
EXTNAMES
  1
USP-TXT
  2
USP-Txt
  0
XRECORD
  5
B7
102
{ACAD_REACTORS
330
B6
102
}
100
AcDbXrecord
340
18
  0
XRECORD
  5
BC
102
{ACAD_REACTORS
330
BB
102
}
100
AcDbXrecord
340
15
  0
XRECORD
  5
D0
102
{ACAD_REACTORS
330
CF
102
}
100
AcDbXrecord
102
EXTNAMES
  1
ACDBVARIABLEDICTIONARY
  2
AcDbVariableDictionary
  0
MLINESTYLE
  5
D1
102
{ACAD_REACTORS
330
CD
102
}
100
AcDbMlineStyle
  2
STANDARD
 70
     0
  3

 62
     0
 51
90.0
 52
90.0
 71
     2
 49
0.5
 62
   256
  6
BYLAYER
 49
-0.5
 62
   256
  6
BYLAYER
  0
ENDSEC
  0
EOF
