  0
SECTION
  2
HEADER
  9
$ACADVER
  1
AC1014
  9
$ACADMAINTVER
 70
     9
  9
$DWGCODEPAGE
  3
ANSI_1252
  9
$INSBASE
 10
0.0
 20
0.0
 30
0.0
  9
$EXTMIN
 10
0.0008756519176174
 20
0.0009773480607294
 30
0.0
  9
$EXTMAX
 10
28.69603154467382
 20
32.02847213933468
 30
0.0000000000000037
  9
$LIMMIN
 10
0.0
 20
0.0
  9
$LIMMAX
 10
12.0
 20
9.0
  9
$ORTHOMODE
 70
     0
  9
$REGENMODE
 70
     1
  9
$FILLMODE
 70
     1
  9
$QTEXTMODE
 70
     0
  9
$MIRRTEXT
 70
     1
  9
$DRAGMODE
 70
     2
  9
$LTSCALE
 40
1.0
  9
$OSMODE
 70
    37
  9
$ATTMODE
 70
     1
  9
$TEXTSIZE
 40
0.75
  9
$TRACEWID
 40
0.05
  9
$TEXTSTYLE
  7
STANDARD
  9
$CLAYER
  8
0
  9
$CELTYPE
  6
BYLAYER
  9
$CECOLOR
 62
   256
  9
$CELTSCALE
 40
1.0
  9
$DELOBJ
 70
     1
  9
$DISPSILH
 70
     0
  9
$DIMSCALE
 40
1.0
  9
$DIMASZ
 40
0.18
  9
$DIMEXO
 40
0.0625
  9
$DIMDLI
 40
0.38
  9
$DIMRND
 40
0.0
  9
$DIMDLE
 40
0.0
  9
$DIMEXE
 40
0.18
  9
$DIMTP
 40
0.0
  9
$DIMTM
 40
0.0
  9
$DIMTXT
 40
0.18
  9
$DIMCEN
 40
0.09
  9
$DIMTSZ
 40
0.0
  9
$DIMTOL
 70
     0
  9
$DIMLIM
 70
     0
  9
$DIMTIH
 70
     1
  9
$DIMTOH
 70
     1
  9
$DIMSE1
 70
     0
  9
$DIMSE2
 70
     0
  9
$DIMTAD
 70
     0
  9
$DIMZIN
 70
     0
  9
$DIMBLK
  1

  9
$DIMASO
 70
     1
  9
$DIMSHO
 70
     1
  9
$DIMPOST
  1

  9
$DIMAPOST
  1

  9
$DIMALT
 70
     0
  9
$DIMALTD
 70
     2
  9
$DIMALTF
 40
25.4
  9
$DIMLFAC
 40
1.0
  9
$DIMTOFL
 70
     0
  9
$DIMTVP
 40
0.0
  9
$DIMTIX
 70
     0
  9
$DIMSOXD
 70
     0
  9
$DIMSAH
 70
     0
  9
$DIMBLK1
  1

  9
$DIMBLK2
  1

  9
$DIMSTYLE
  2
STANDARD
  9
$DIMCLRD
 70
     0
  9
$DIMCLRE
 70
     0
  9
$DIMCLRT
 70
     0
  9
$DIMTFAC
 40
1.0
  9
$DIMGAP
 40
0.09
  9
$DIMJUST
 70
     0
  9
$DIMSD1
 70
     0
  9
$DIMSD2
 70
     0
  9
$DIMTOLJ
 70
     1
  9
$DIMTZIN
 70
     0
  9
$DIMALTZ
 70
     0
  9
$DIMALTTZ
 70
     0
  9
$DIMFIT
 70
     3
  9
$DIMUPT
 70
     0
  9
$DIMUNIT
 70
     2
  9
$DIMDEC
 70
     4
  9
$DIMTDEC
 70
     4
  9
$DIMALTU
 70
     2
  9
$DIMALTTD
 70
     2
  9
$DIMTXSTY
  7
STANDARD
  9
$DIMAUNIT
 70
     0
  9
$LUNITS
 70
     2
  9
$LUPREC
 70
     4
  9
$SKETCHINC
 40
0.1
  9
$FILLETRAD
 40
0.5
  9
$AUNITS
 70
     0
  9
$AUPREC
 70
     0
  9
$MENU
  1
.
  9
$ELEVATION
 40
0.0
  9
$PELEVATION
 40
0.0
  9
$THICKNESS
 40
0.0
  9
$LIMCHECK
 70
     0
  9
$BLIPMODE
 70
     0
  9
$CHAMFERA
 40
0.5
  9
$CHAMFERB
 40
0.5
  9
$CHAMFERC
 40
1.0
  9
$CHAMFERD
 40
0.0
  9
$SKPOLY
 70
     0
  9
$TDCREATE
 40
2451675.885797453
  9
$TDUPDATE
 40
2452759.745143229
  9
$TDINDWG
 40
0.0099308449
  9
$TDUSRTIMER
 40
0.0099226273
  9
$USRTIMER
 70
     1
  9
$ANGBASE
 50
0.0
  9
$ANGDIR
 70
     0
  9
$PDMODE
 70
     0
  9
$PDSIZE
 40
0.0
  9
$PLINEWID
 40
0.0
  9
$COORDS
 70
     1
  9
$SPLFRAME
 70
     0
  9
$SPLINETYPE
 70
     6
  9
$SPLINESEGS
 70
     8
  9
$ATTDIA
 70
     0
  9
$ATTREQ
 70
     1
  9
$HANDLING
 70
     1
  9
$HANDSEED
  5
D2
  9
$SURFTAB1
 70
     6
  9
$SURFTAB2
 70
     6
  9
$SURFTYPE
 70
     6
  9
$SURFU
 70
     6
  9
$SURFV
 70
     6
  9
$UCSNAME
  2

  9
$UCSORG
 10
0.0
 20
0.0
 30
0.0
  9
$UCSXDIR
 10
1.0
 20
0.0
 30
0.0
  9
$UCSYDIR
 10
0.0
 20
1.0
 30
0.0
  9
$PUCSNAME
  2

  9
$PUCSORG
 10
0.0
 20
0.0
 30
0.0
  9
$PUCSXDIR
 10
1.0
 20
0.0
 30
0.0
  9
$PUCSYDIR
 10
0.0
 20
1.0
 30
0.0
  9
$USERI1
 70
     0
  9
$USERI2
 70
     0
  9
$USERI3
 70
     0
  9
$USERI4
 70
     0
  9
$USERI5
 70
     0
  9
$USERR1
 40
0.0
  9
$USERR2
 40
0.0
  9
$USERR3
 40
0.0
  9
$USERR4
 40
0.0
  9
$USERR5
 40
0.0
  9
$WORLDVIEW
 70
     1
  9
$SHADEDGE
 70
     3
  9
$SHADEDIF
 70
    70
  9
$TILEMODE
 70
     1
  9
$MAXACTVP
 70
    48
  9
$PINSBASE
 10
0.0
 20
0.0
 30
0.0
  9
$PLIMCHECK
 70
     0
  9
$PEXTMIN
 10
1.000000000000000E+20
 20
1.000000000000000E+20
 30
1.000000000000000E+20
  9
$PEXTMAX
 10
-1.000000000000000E+20
 20
-1.000000000000000E+20
 30
-1.000000000000000E+20
  9
$PLIMMIN
 10
0.0
 20
0.0
  9
$PLIMMAX
 10
12.0
 20
9.0
  9
$UNITMODE
 70
     0
  9
$VISRETAIN
 70
     1
  9
$PLINEGEN
 70
     0
  9
$PSLTSCALE
 70
     1
  9
$TREEDEPTH
 70
  3020
  9
$PICKSTYLE
 70
     1
  9
$CMLSTYLE
  2
STANDARD
  9
$CMLJUST
 70
     0
  9
$CMLSCALE
 40
1.0
  9
$PROXYGRAPHICS
 70
     1
  9
$MEASUREMENT
 70
     0
  0
ENDSEC
  0
SECTION
  2
CLASSES
  0
CLASS
  1
ACDBDICTIONARYWDFLT
  2
AcDbDictionaryWithDefault
  3
AutoCAD 2000
 90
        0
280
     1
281
     0
  0
CLASS
  1
ACDBPLACEHOLDER
  2
AcDbPlaceHolder
  3
AutoCAD 2000
 90
        0
280
     1
281
     0
  0
CLASS
  1
LAYOUT
  2
AcDbLayout
  3
AutoCAD 2000
 90
        0
280
     1
281
     0
  0
CLASS
  1
LONG_TRANSACTION
  2
AcDbLongTransaction
  3
AutoCAD 2000
 90
        0
280
     1
281
     0
  0
CLASS
  1
LWPOLYLINE
  2
AcDbPolyline
  3
"AutoCAD"
 90
        0
280
     1
281
     1
  0
CLASS
  1
HATCH
  2
AcDbHatch
  3
"ACAD_SEDONA"
 90
        0
280
     1
281
     1
  0
CLASS
  1
XRECORD
  2
AcDbXrecord
  3
"<Built In>"
 90
        0
280
     0
281
     0
  0
CLASS
  1
LONG_TRANSACTION
  2
AcDbLongTransaction
  3
AutoCAD 2000
 90
        0
280
     1
281
     0
  0
CLASS
  1
LWPOLYLINE
  2
AcDbPolyline
  3
"AutoCAD"
 90
        0
280
     1
281
     1
  0
CLASS
  1
HATCH
  2
AcDbHatch
  3
"ACAD_SEDONA"
 90
        0
280
     1
281
     1
  0
CLASS
  1
XRECORD
  2
AcDbXrecord
  3
"<Built In>"
 90
        0
280
     0
281
     0
  0
CLASS
  1
LONG_TRANSACTION
  2
AcDbLongTransaction
  3
AutoCAD 2000
 90
        0
280
     1
281
     0
  0
CLASS
  1
LWPOLYLINE
  2
AcDbPolyline
  3
"AutoCAD"
 90
        0
280
     1
281
     1
  0
CLASS
  1
HATCH
  2
AcDbHatch
  3
"ACAD_SEDONA"
 90
        0
280
     1
281
     1
  0
CLASS
  1
XRECORD
  2
AcDbXrecord
  3
"<Built In>"
 90
        0
280
     0
281
     0
  0
CLASS
  1
DICTIONARYVAR
  2
AcDbDictionaryVar
  3
"AutoCAD"
 90
        0
280
     0
281
     0
  0
CLASS
  1
LONG_TRANSACTION
  2
AcDbLongTransaction
  3
AutoCAD 2000
 90
        0
280
     0
281
     0
  0
CLASS
  1
LWPOLYLINE
  2
AcDbPolyline
  3
"AutoCAD"
 90
        0
280
     0
281
     1
  0
CLASS
  1
HATCH
  2
AcDbHatch
  3
"ACAD_SEDONA"
 90
        0
280
     0
281
     1
  0
CLASS
  1
XRECORD
  2
AcDbXrecord
  3
"<Built In>"
 90
        0
280
     0
281
     0
  0
CLASS
  1
LONG_TRANSACTION
  2
AcDbLongTransaction
  3
AutoCAD 2000
 90
        0
280
     0
281
     0
  0
CLASS
  1
LWPOLYLINE
  2
AcDbPolyline
  3
"AutoCAD"
 90
        0
280
     0
281
     1
  0
CLASS
  1
HATCH
  2
AcDbHatch
  3
"ACAD_SEDONA"
 90
        0
280
     0
281
     1
  0
CLASS
  1
XRECORD
  2
AcDbXrecord
  3
"<Built In>"
 90
        0
280
     0
281
     0
  0
ENDSEC
  0
SECTION
  2
TABLES
  0
TABLE
  2
VPORT
  5
B2
100
AcDbSymbolTable
 70
     1
  0
VPORT
  5
CE
100
AcDbSymbolTableRecord
100
AcDbViewportTableRecord
  2
*ACTIVE
 70
     0
 10
0.0
 20
0.0
 11
1.0
 21
1.0
 12
14.34911063951239
 22
16.40991780578085
 13
0.0
 23
0.0
 14
0.5
 24
0.5
 15
0.5
 25
0.5
 16
0.0
 26
0.0
 36
1.0
 17
0.0
 27
0.0
 37
0.0
 40
33.05379612530943
 41
1.457627118644067
 42
50.0
 43
0.0
 44
0.0
 50
0.0
 51
0.0
 71
     0
 72
   100
 73
     1
 74
     3
 75
     0
 76
     0
 77
     0
 78
     0
  0
ENDTAB
  0
TABLE
  2
LTYPE
  5
AB
100
AcDbSymbolTable
 70
     2
  0
LTYPE
  5
AC
102
{ACAD_XDICTIONARY
360
AD
102
}
100
AcDbSymbolTableRecord
100
AcDbLinetypeTableRecord
  2
BYBLOCK
 70
     0
  3

 72
    65
 73
     0
 40
0.0
  0
LTYPE
  5
AE
102
{ACAD_XDICTIONARY
360
AF
102
}
100
AcDbSymbolTableRecord
100
AcDbLinetypeTableRecord
  2
BYLAYER
 70
     0
  3

 72
    65
 73
     0
 40
0.0
  0
LTYPE
  5
5
102
{ACAD_XDICTIONARY
360
6
102
}
100
AcDbSymbolTableRecord
100
AcDbLinetypeTableRecord
  2
CONTINUOUS
 70
     0
  3
Solid line
 72
    65
 73
     0
 40
0.0
  0
LTYPE
  5
61
100
AcDbSymbolTableRecord
100
AcDbLinetypeTableRecord
  2
HIDDEN
 70
     0
  3
Hidden __ __ __ __ __ __ __ __ __ __ __ __ __ _
 72
    65
 73
     2
 40
0.375
 49
0.25
 74
     0
 49
-0.125
 74
     0
  0
ENDTAB
  0
TABLE
  2
LAYER
  5
A9
100
AcDbSymbolTable
 70
     5
  0
LAYER
  5
50
100
AcDbSymbolTableRecord
100
AcDbLayerTableRecord
  2
0
 70
     0
 62
     7
  6
CONTINUOUS
  0
LAYER
  5
60
100
AcDbSymbolTableRecord
100
AcDbLayerTableRecord
  2
USP-HID
 70
     0
 62
     7
  6
HIDDEN
  0
LAYER
  5
9
100
AcDbSymbolTableRecord
100
AcDbLayerTableRecord
  2
USP-GEO
 70
     0
 62
     7
  6
CONTINUOUS
  0
LAYER
  5
C
100
AcDbSymbolTableRecord
100
AcDbLayerTableRecord
  2
USP-TXT
 70
     0
 62
     7
  6
CONTINUOUS
  0
LAYER
  5
4
100
AcDbSymbolTableRecord
100
AcDbLayerTableRecord
  2
USP
 70
     0
 62
     7
  6
CONTINUOUS
  0
ENDTAB
  0
TABLE
  2
STYLE
  5
AA
100
AcDbSymbolTable
 70
     1
  0
STYLE
  5
D
102
{ACAD_XDICTIONARY
360
E
102
}
100
AcDbSymbolTableRecord
100
AcDbTextStyleTableRecord
  2
STANDARD
 70
     0
 40
0.0
 41
1.0
 50
0.0
 71
     0
 42
0.75
  3
txt
  4

  0
ENDTAB
  0
TABLE
  2
VIEW
  5
B0
100
AcDbSymbolTable
 70
     0
  0
ENDTAB
  0
TABLE
  2
UCS
  5
B1
100
AcDbSymbolTable
 70
     0
  0
ENDTAB
  0
TABLE
  2
APPID
  5
B4
100
AcDbSymbolTable
 70
     1
  0
APPID
  5
B5
100
AcDbSymbolTableRecord
100
AcDbRegAppTableRecord
  2
ACAD
 70
     0
  0
ENDTAB
  0
TABLE
  2
DIMSTYLE
  5
B6
100
AcDbSymbolTable
 70
     1
  0
DIMSTYLE
105
BF
102
{ACAD_XDICTIONARY
360
C0
102
}
100
AcDbSymbolTableRecord
100
AcDbDimStyleTableRecord
  2
STANDARD
 70
     0
  3

  4

  5

  6

  7

 40
1.0
 41
0.18
 42
0.0625
 43
0.38
 44
0.18
 45
0.0
 46
0.0
 47
0.0
 48
0.0
140
0.18
141
0.09
142
0.0
143
25.4
144
1.0
145
0.0
146
1.0
147
0.09
 71
     0
 72
     0
 73
     1
 74
     1
 75
     0
 76
     0
 77
     0
 78
     0
170
     0
171
     2
172
     0
173
     0
174
     0
175
     0
176
     0
177
     0
178
     0
270
     2
271
     4
272
     4
273
     2
274
     2
340
D
275
     0
280
     0
281
     0
282
     0
283
     1
284
     0
285
     0
286
     0
287
     3
288
     0
  0
ENDTAB
  0
TABLE
  2
BLOCK_RECORD
  5
1
100
AcDbSymbolTable
 70
     2
  0
BLOCK_RECORD
  5
2
102
{ACAD_XDICTIONARY
360
A0
102
}
100
AcDbSymbolTableRecord
100
AcDbBlockTableRecord
  2
*MODEL_SPACE
  0
BLOCK_RECORD
  5
A4
102
{ACAD_XDICTIONARY
360
A5
102
}
100
AcDbSymbolTableRecord
100
AcDbBlockTableRecord
  2
*PAPER_SPACE
  0
BLOCK_RECORD
  5
7
100
AcDbSymbolTableRecord
100
AcDbBlockTableRecord
  2
HTW30C_F
  0
BLOCK_RECORD
  5
53
100
AcDbSymbolTableRecord
100
AcDbBlockTableRecord
  2
HTW30C_S
  0
ENDTAB
  0
ENDSEC
  0
SECTION
  2
BLOCKS
  0
BLOCK
  5
A2
100
AcDbEntity
  8
0
100
AcDbBlockBegin
  2
*MODEL_SPACE
 70
     0
 10
0.0
 20
0.0
 30
0.0
  3
*MODEL_SPACE
  1

  0
ENDBLK
  5
A3
100
AcDbEntity
  8
0
100
AcDbBlockEnd
  0
BLOCK
  5
A7
100
AcDbEntity
 67
     1
  8
0
100
AcDbBlockBegin
  2
*PAPER_SPACE
 70
     0
 10
0.0
 20
0.0
 30
0.0
  3
*PAPER_SPACE
  1

  0
ENDBLK
  5
A8
100
AcDbEntity
 67
     1
  8
0
100
AcDbBlockEnd
  0
BLOCK
  5
4F
100
AcDbEntity
  8
0
100
AcDbBlockBegin
  2
HTW30C_F
 70
     0
 10
0.0
 20
0.0
 30
0.0
  3
HTW30C_F
  1

  0
LINE
  5
8
100
AcDbEntity
  8
USP-GEO
100
AcDbLine
 10
0.0
 20
0.1767766952966383
 30
0.0
 11
0.0000000000000178
 21
9.900000000000037
 31
-0.0000000000000012
210
1.0
220
-0.0000000000000002
230
0.0
  0
LINE
  5
A
100
AcDbEntity
  8
USP-GEO
100
AcDbLine
 10
1.250000000000046
 20
9.900000000000037
 30
-0.0000000000000012
 11
1.249999999999953
 21
0.1767766952965815
 31
0.0
210
1.0
220
-0.0000000000000002
230
0.0
  0
TEXT
  5
B
100
AcDbEntity
  8
USP-TXT
100
AcDbText
 10
-6.56249999999995
 20
-2.027494791273952
 30
0.0
 40
0.75
  1
HTW30C - FRONT VIEW
 72
     1
 11
0.6250000000000498
 21
-2.027494791273952
 31
0.0
100
AcDbText
  0
LINE
  5
F
100
AcDbEntity
  8
USP-GEO
100
AcDbLine
 10
1.073223304703411
 20
0.0
 30
0.0
 11
0.176776695296688
 21
0.0
 31
0.0
210
1.0
220
-0.0000000000000002
230
0.0
  0
LINE
  5
10
100
AcDbEntity
  8
USP-GEO
100
AcDbLine
 10
0.1767766952966898
 20
0.0
 30
0.0
 11
0.0000000000000213
 21
0.1767766952966383
 31
0.0
210
1.0
220
-0.0000000000000002
230
0.0
  0
CIRCLE
  5
11
100
AcDbEntity
  8
USP-GEO
100
AcDbCircle
 10
0.3750000000000213
 20
0.3140580160703603
 30
0.0
 40
0.078
  0
LINE
  5
12
100
AcDbEntity
  8
USP-GEO
100
AcDbLine
 10
1.249999999999959
 20
0.1767766952965672
 30
0.0
 11
1.073223304703411
 21
0.0
 31
0.0
210
1.0
220
-0.0000000000000002
230
0.0
  0
CIRCLE
  5
13
100
AcDbEntity
  8
USP-GEO
100
AcDbCircle
 10
0.625000000000016
 20
1.501558016070356
 30
-0.0000000000000002
 40
0.15625
  0
CIRCLE
  5
14
100
AcDbEntity
  8
USP-GEO
100
AcDbCircle
 10
0.2500000000000213
 20
1.314058016070363
 30
-0.0000000000000002
 40
0.078
  0
CIRCLE
  5
15
100
AcDbEntity
  8
USP-GEO
100
AcDbCircle
 10
0.8750000000000177
 20
0.6890580160703604
 30
-0.0000000000000001
 40
0.078
  0
CIRCLE
  5
16
100
AcDbEntity
  8
USP-GEO
100
AcDbCircle
 10
1.000000000000017
 20
1.689058016070356
 30
-0.0000000000000002
 40
0.078
  0
CIRCLE
  5
17
100
AcDbEntity
  8
USP-GEO
100
AcDbCircle
 10
0.3750000000000178
 20
2.314058016070356
 30
-0.0000000000000003
 40
0.078
  0
CIRCLE
  5
18
100
AcDbEntity
  8
USP-GEO
100
AcDbCircle
 10
0.2500000000000213
 20
3.312499999999994
 30
-0.0000000000000004
 40
0.078
  0
CIRCLE
  5
19
100
AcDbEntity
  8
USP-GEO
100
AcDbCircle
 10
0.8750000000000195
 20
2.68905801607036
 30
-0.0000000000000003
 40
0.078
  0
CIRCLE
  5
1A
100
AcDbEntity
  8
USP-GEO
100
AcDbCircle
 10
1.000000000000021
 20
3.687499999999998
 30
-0.0000000000000005
 40
0.078
  0
CIRCLE
  5
1B
100
AcDbEntity
  8
USP-GEO
100
AcDbCircle
 10
0.3750000000000195
 20
4.312499999999998
 30
-0.0000000000000005
 40
0.078
  0
LINE
  5
1C
100
AcDbEntity
  8
USP-GEO
100
AcDbLine
 10
1.480950000000044
 20
29.82322330470342
 30
-0.0000000000000037
 11
1.480950000000046
 21
20.09999999999997
 31
-0.0000000000000025
210
1.0
220
-0.0000000000000002
230
0.0
  0
LINE
  5
1D
100
AcDbEntity
  8
USP-GEO
100
AcDbLine
 10
1.406250000000044
 20
29.82322330470342
 30
-0.0000000000000037
 11
1.406250000000046
 21
20.09999999999997
 31
-0.0000000000000025
210
1.0
220
-0.0000000000000002
230
0.0
  0
LINE
  5
1E
100
AcDbEntity
  8
USP-GEO
100
AcDbLine
 10
0.0091205225925375
 20
12.22033388133302
 30
-0.0000000000000015
 11
1.391053610173607
 21
17.1952929966249
 31
-0.0000000000000021
210
1.0
220
-0.0000000000000002
230
0.0
  0
LINE
  5
1F
100
AcDbEntity
  8
USP-GEO
100
AcDbLine
 10
1.480950000000044
 20
12.75981076374213
 30
-0.0000000000000016
 11
1.480950000000044
 21
17.77966611866685
 31
-0.0000000000000022
210
1.0
220
-0.0000000000000002
230
0.0
  0
LINE
  5
20
100
AcDbEntity
  8
USP-GEO
100
AcDbLine
 10
1.406250000000044
 20
17.77966611866685
 30
-0.0000000000000022
 11
1.406250000000044
 21
12.75981076374213
 31
-0.0000000000000016
210
1.0
220
-0.0000000000000002
230
0.0
  0
CIRCLE
  5
21
100
AcDbEntity
  8
USP-GEO
100
AcDbCircle
 10
0.8750000000000177
 20
8.687499999999998
 30
-0.0000000000000011
 40
0.078
  0
CIRCLE
  5
22
100
AcDbEntity
  8
USP-GEO
100
AcDbCircle
 10
0.8750000000000177
 20
6.687499999999998
 30
-0.0000000000000008
 40
0.078
  0
CIRCLE
  5
23
100
AcDbEntity
  8
USP-GEO
100
AcDbCircle
 10
1.000000000000017
 20
5.687499999999994
 30
-0.0000000000000007
 40
0.078
  0
CIRCLE
  5
24
100
AcDbEntity
  8
USP-GEO
100
AcDbCircle
 10
0.2500000000000195
 20
5.312500000000001
 30
-0.0000000000000007
 40
0.078
  0
CIRCLE
  5
25
100
AcDbEntity
  8
USP-GEO
100
AcDbCircle
 10
0.8750000000000195
 20
4.687500000000001
 30
-0.0000000000000006
 40
0.078
  0
CIRCLE
  5
26
100
AcDbEntity
  8
USP-GEO
100
AcDbCircle
 10
0.375000000000016
 20
6.312500000000001
 30
-0.0000000000000008
 40
0.078
  0
CIRCLE
  5
27
100
AcDbEntity
  8
USP-GEO
100
AcDbCircle
 10
1.000000000000019
 20
7.687499999999998
 30
-0.0000000000000009
 40
0.078
  0
CIRCLE
  5
28
100
AcDbEntity
  8
USP-GEO
100
AcDbCircle
 10
0.2500000000000195
 20
7.312500000000001
 30
-0.0000000000000009
 40
0.078
  0
CIRCLE
  5
29
100
AcDbEntity
  8
USP-GEO
100
AcDbCircle
 10
0.375000000000016
 20
8.312499999999998
 30
-0.000000000000001
 40
0.078
  0
LINE
  5
2A
100
AcDbEntity
  8
USP-GEO
100
AcDbLine
 10
0.0000000000000178
 20
10.10000000000002
 30
-0.0000000000000012
 11
0.0000000000000178
 21
12.1534229153865
 31
-0.0000000000000015
210
1.0
220
-0.0000000000000002
230
0.0
  0
LINE
  5
2B
100
AcDbEntity
  8
USP-GEO
100
AcDbLine
 10
1.250000000000046
 20
12.15342291538635
 30
-0.0000000000000015
 11
1.250000000000047
 21
10.10000000000002
 31
-0.0000000000000012
210
1.0
220
-0.0000000000000002
230
0.0
  0
CIRCLE
  5
2C
100
AcDbEntity
  8
USP-GEO
100
AcDbCircle
 10
0.2500000000000195
 20
9.312499999999998
 30
-0.0000000000000011
 40
0.078
  0
CIRCLE
  5
2D
100
AcDbEntity
  8
USP-GEO
100
AcDbCircle
 10
1.000000000000017
 20
9.687500000000001
 30
-0.0000000000000012
 40
0.078
  0
LINE
  5
2E
100
AcDbEntity
  8
USP-GEO
100
AcDbLine
 10
0.0625000000000178
 20
9.962500000000034
 30
-0.0000000000000012
 11
0.0625000000000178
 21
10.03750000000002
 31
-0.0000000000000012
210
1.0
220
-0.0000000000000002
230
0.0
  0
ARC
  5
2F
100
AcDbEntity
  8
USP-GEO
100
AcDbCircle
 10
0.0000000000000178
 20
9.962500000000028
 30
-0.0000000000000012
 40
0.0625
100
AcDbArc
 50
270.0
 51
0.000000000003206
  0
ARC
  5
30
100
AcDbEntity
  8
USP-GEO
100
AcDbCircle
 10
0.0000000000000195
 20
10.03750000000002
 30
-0.0000000000000012
 40
0.0625
100
AcDbArc
 50
0.0
 51
90.0
  0
CIRCLE
  5
31
100
AcDbEntity
  8
USP-GEO
100
AcDbCircle
 10
0.750000000000016
 20
10.31249999999999
 30
-0.0000000000000013
 40
0.078
  0
LINE
  5
32
100
AcDbEntity
  8
USP-GEO
100
AcDbLine
 10
1.187500000000015
 20
10.03750000000002
 30
-0.0000000000000012
 11
1.187500000000015
 21
9.962500000000037
 31
-0.0000000000000012
210
1.0
220
-0.0000000000000002
230
0.0
  0
ARC
  5
33
100
AcDbEntity
  8
USP-GEO
100
AcDbCircle
 10
1.250000000000015
 20
9.962500000000032
 30
-0.0000000000000012
 40
0.0625
100
AcDbArc
 50
179.9999999999959
 51
270.0000000000268
  0
ARC
  5
34
100
AcDbEntity
  8
USP-GEO
100
AcDbCircle
 10
1.250000000000015
 20
10.03750000000002
 30
-0.0000000000000012
 40
0.0625
100
AcDbArc
 50
89.99999999997232
 51
179.9999999999991
  0
ARC
  5
35
100
AcDbEntity
  8
USP-GEO
100
AcDbCircle
 10
1.463028398022963
 20
12.67529999999981
 30
-0.0000000000000016
 40
0.0747000000000001
100
AcDbArc
 50
120.2663557833644
 51
164.4758890032451
  0
CIRCLE
  5
36
100
AcDbEntity
  8
USP-GEO
100
AcDbCircle
 10
0.500000000000016
 20
11.31249999999999
 30
-0.0000000000000014
 40
0.078
  0
ARC
  5
37
100
AcDbEntity
  8
USP-GEO
100
AcDbCircle
 10
0.2500000000000195
 20
12.1534229153865
 30
-0.0000000000000015
 40
0.2500000000000001
100
AcDbArc
 50
164.4758890032476
 51
180.0000000000007
  0
LINE
  5
38
100
AcDbEntity
  8
USP-GEO
100
AcDbLine
 10
1.391053610173607
 20
12.69529299662464
 30
-0.0000000000000016
 11
1.25912052259256
 21
12.22033388133288
 31
-0.0000000000000015
210
1.0
220
-0.0000000000000002
230
0.0
  0
ARC
  5
39
100
AcDbEntity
  8
USP-GEO
100
AcDbCircle
 10
1.500000000000046
 20
12.15342291538635
 30
-0.0000000000000015
 40
0.2500000000000001
100
AcDbArc
 50
164.4758890032451
 51
179.9999999999991
  0
LINE
  5
3A
100
AcDbEntity
  8
USP-GEO
100
AcDbLine
 10
1.463028398022961
 20
12.74999999999981
 30
-0.0000000000000016
 11
1.480950000000044
 21
12.74999999999981
 31
-0.0000000000000016
210
1.0
220
-0.0000000000000002
230
0.0
  0
LINE
  5
3B
100
AcDbEntity
  8
USP-GEO
100
AcDbLine
 10
1.480950000000046
 20
12.74999999999981
 30
-0.0000000000000016
 11
1.480950000000046
 21
12.75981076374213
 31
-0.0000000000000016
210
1.0
220
-0.0000000000000002
230
0.0
  0
LINE
  5
3C
100
AcDbEntity
  8
USP-GEO
100
AcDbLine
 10
1.406250000000049
 20
12.75981076374213
 30
-0.0000000000000016
 11
1.406250000000049
 21
12.73981776711731
 31
-0.0000000000000016
210
1.0
220
-0.0000000000000002
230
0.0
  0
SPLINE
  5
3D
100
AcDbEntity
  8
USP-GEO
100
AcDbSpline
210
0.0
220
-0.0000000000000001
230
-1.0
 70
     8
 71
     3
 72
    10
 73
     6
 74
     0
 42
0.0000001
 43
0.0000001
 40
-0.0384991965579223
 40
-0.0384991965579223
 40
-0.0384991965579223
 40
-0.0384991965579223
 40
-0.0355730724160492
 40
-0.0355730724160492
 40
0.0
 40
0.0
 40
0.0
 40
0.0
 10
1.425378063015523
 20
12.73981776711731
 30
-0.0000000000000016
 10
1.426246365265056
 20
12.74032447824578
 30
-0.0000000000000016
 10
1.427125405332756
 20
12.74081394919319
 30
-0.0000000000000016
 10
1.438819436860136
 20
12.7470191978053
 30
-0.0000000000000016
 10
1.451170707217611
 20
12.74999999999981
 30
-0.0000000000000016
 10
1.463028398022961
 20
12.74999999999981
 30
-0.0000000000000016
  0
LINE
  5
3E
100
AcDbEntity
  8
USP-GEO
100
AcDbLine
 10
1.480950000000046
 20
19.89999999999997
 30
-0.0000000000000024
 11
1.480950000000046
 21
17.84657708461339
 31
-0.0000000000000022
210
1.0
220
-0.0000000000000002
230
0.0
  0
LINE
  5
3F
100
AcDbEntity
  8
USP-GEO
100
AcDbLine
 10
1.406250000000046
 20
19.89999999999998
 30
-0.0000000000000024
 11
1.406250000000046
 21
17.84657708461339
 31
-0.0000000000000022
210
1.0
220
-0.0000000000000002
230
0.0
  0
ARC
  5
40
100
AcDbEntity
  8
USP-GEO
100
AcDbCircle
 10
1.463028398022956
 20
17.17530000000008
 30
-0.0000000000000021
 40
0.0747
100
AcDbArc
 50
139.4717491471411
 51
164.4758890032461
  0
LINE
  5
41
100
AcDbEntity
  8
USP-GEO
100
AcDbLine
 10
1.480950000000047
 20
17.84657708461339
 30
-0.0000000000000022
 11
1.480950000000047
 21
17.77966611866685
 31
-0.0000000000000022
210
1.0
220
-0.0000000000000002
230
0.0
  0
LINE
  5
42
100
AcDbEntity
  8
USP-GEO
100
AcDbLine
 10
1.406250000000047
 20
17.84657708461339
 30
-0.0000000000000022
 11
1.406250000000047
 21
17.77966611866685
 31
-0.0000000000000022
210
1.0
220
-0.0000000000000002
230
0.0
  0
LINE
  5
43
100
AcDbEntity
  8
USP-GEO
100
AcDbLine
 10
1.480950000000046
 20
19.89999999999998
 30
-0.0000000000000024
 11
1.480950000000046
 21
19.96249999999998
 31
-0.0000000000000024
210
1.0
220
-0.0000000000000002
230
0.0
  0
LINE
  5
44
100
AcDbEntity
  8
USP-GEO
100
AcDbLine
 10
1.480950000000046
 20
20.03749999999997
 30
-0.0000000000000025
 11
1.480950000000046
 21
20.09999999999997
 31
-0.0000000000000025
210
1.0
220
-0.0000000000000002
230
0.0
  0
LINE
  5
45
100
AcDbEntity
  8
USP-GEO
100
AcDbLine
 10
1.480950000000046
 20
19.96249999999998
 30
-0.0000000000000024
 11
1.480950000000046
 21
20.03749999999997
 31
-0.0000000000000025
210
1.0
220
-0.0000000000000002
230
0.0
  0
LINE
  5
46
100
AcDbEntity
  8
USP-GEO
100
AcDbLine
 10
1.406250000000046
 20
19.96249999999998
 30
-0.0000000000000024
 11
1.406250000000046
 21
19.89999999999998
 31
-0.0000000000000024
210
1.0
220
-0.0000000000000002
230
0.0
  0
LINE
  5
47
100
AcDbEntity
  8
USP-GEO
100
AcDbLine
 10
1.406250000000044
 20
20.09999999999997
 30
-0.0000000000000025
 11
1.406250000000044
 21
20.03749999999997
 31
-0.0000000000000025
210
1.0
220
-0.0000000000000002
230
0.0
  0
LINE
  5
48
100
AcDbEntity
  8
USP-GEO
100
AcDbLine
 10
1.406250000000046
 20
20.03749999999997
 30
-0.0000000000000025
 11
1.406250000000046
 21
19.96249999999998
 31
-0.0000000000000024
210
1.0
220
-0.0000000000000002
230
0.0
  0
LINE
  5
49
100
AcDbEntity
  8
USP-GEO
100
AcDbLine
 10
1.480950000000046
 20
20.09999999999997
 30
-0.0000000000000025
 11
1.406250000000046
 21
20.09999999999997
 31
-0.0000000000000025
210
1.0
220
-0.0000000000000002
230
0.0
  0
LINE
  5
4A
100
AcDbEntity
  8
USP-GEO
100
AcDbLine
 10
1.480950000000046
 20
19.89999999999997
 30
-0.0000000000000024
 11
1.406250000000046
 21
19.89999999999997
 31
-0.0000000000000024
210
1.0
220
-0.0000000000000002
230
0.0
  0
LINE
  5
4B
100
AcDbEntity
  8
USP-GEO
100
AcDbLine
 10
1.406250000000044
 20
30.0
 30
-0.0000000000000037
 11
1.406250000000044
 21
29.8232233047034
 31
-0.0000000000000037
210
1.0
220
-0.0000000000000002
230
0.0
  0
LINE
  5
4C
100
AcDbEntity
  8
USP-GEO
100
AcDbLine
 10
1.480950000000044
 20
29.8232233047034
 30
-0.0000000000000037
 11
1.480950000000044
 21
30.0
 31
-0.0000000000000037
210
1.0
220
-0.0000000000000002
230
0.0
  0
LINE
  5
4D
100
AcDbEntity
  8
USP-GEO
100
AcDbLine
 10
1.480950000000044
 20
29.82322330470342
 30
-0.0000000000000037
 11
1.406250000000044
 21
29.82322330470342
 31
-0.0000000000000037
210
1.0
220
-0.0000000000000002
230
0.0
  0
LINE
  5
4E
100
AcDbEntity
  8
USP-GEO
100
AcDbLine
 10
1.480950000000044
 20
30.0
 30
-0.0000000000000037
 11
1.406250000000044
 21
30.0
 31
-0.0000000000000037
210
1.0
220
-0.0000000000000002
230
0.0
  0
ENDBLK
  5
51
100
AcDbEntity
  8
0
100
AcDbBlockEnd
  0
BLOCK
  5
9E
100
AcDbEntity
  8
0
100
AcDbBlockBegin
  2
HTW30C_S
 70
     0
 10
0.0
 20
0.0
 30
0.0
  3
HTW30C_S
  1

  0
LINE
  5
54
100
AcDbEntity
  8
USP-GEO
100
AcDbLine
 10
1.471829477407482
 20
9.900000000000037
 30
0.0
 11
1.471829477407485
 21
0.1767766952965815
 31
0.0
  0
LINE
  5
55
100
AcDbEntity
  8
USP-GEO
100
AcDbLine
 10
1.397129477407478
 20
9.900000000000037
 30
0.0
 11
1.397129477407478
 21
0.1767766952965815
 31
0.0
  0
TEXT
  5
56
100
AcDbEntity
  8
USP-TXT
100
AcDbText
 10
-6.071620522592525
 20
-2.027494791273948
 30
0.0000000000000037
 40
0.75
  1
HTW30C - SIDE VIEW
 72
     1
 11
0.615879477407475
 21
-2.027494791273948
 31
0.0000000000000037
100
AcDbText
  0
LINE
  5
57
100
AcDbEntity
  8
USP-GEO
100
AcDbLine
 10
1.471829477407478
 20
0.0
 30
0.0
 11
1.397129477407485
 21
0.0
 31
0.0
  0
LINE
  5
58
100
AcDbEntity
  8
USP-GEO
100
AcDbLine
 10
1.471829477407485
 20
0.1767766952965815
 30
0.0
 11
1.397129477407485
 21
0.1767766952965815
 31
0.0
  0
LINE
  5
59
100
AcDbEntity
  8
USP-GEO
100
AcDbLine
 10
1.471829477407485
 20
0.1767766952965744
 30
0.0
 11
1.471829477407485
 21
0.0
 31
0.0
  0
LINE
  5
5A
100
AcDbEntity
  8
USP-GEO
100
AcDbLine
 10
1.397129477407485
 20
0.1767766952965672
 30
0.0
 11
1.397129477407485
 21
0.0
 31
0.0
  0
LINE
  5
5B
100
AcDbEntity
  8
USP-GEO
100
AcDbLine
 10
-0.0091205225925251
 20
29.82322330470342
 30
0.0
 11
-0.0091205225925215
 21
20.09999999999997
 31
0.0
  0
LINE
  5
5C
100
AcDbEntity
  8
USP-GEO
100
AcDbLine
 10
1.240879477407474
 20
29.82322330470333
 30
0.0
 11
1.240879477407478
 21
20.09999999999997
 31
0.0
  0
LINE
  5
5D
100
AcDbEntity
  8
USP-GEO
100
AcDbLine
 10
1.394404265256838
 20
12.75981076374213
 30
0.0
 11
0.0000000000000036
 21
17.77966611866685
 31
0.0
  0
LINE
  5
5E
100
AcDbEntity
  8
USP-GEO
100
AcDbLine
 10
1.471829477407482
 20
12.72384177090481
 30
0.0
 11
1.471829477407478
 21
17.22384177085727
 31
0.0
  0
LINE
  5
5F
100
AcDbEntity
  8
USP-HID
100
AcDbLine
 10
1.397129477407482
 20
12.15342291538635
 30
0.0
 11
1.397129477407485
 21
17.25000000000008
 31
0.0
  0
LINE
  5
62
100
AcDbEntity
  8
USP-GEO
100
AcDbLine
 10
1.471829477407482
 20
12.15342291538636
 30
0.0
 11
1.471829477407482
 21
10.10000000000002
 31
0.0
  0
LINE
  5
63
100
AcDbEntity
  8
USP-GEO
100
AcDbLine
 10
1.397129477407482
 20
12.15342291538635
 30
0.0
 11
1.397129477407482
 21
10.10000000000002
 31
0.0
  0
LINE
  5
64
100
AcDbEntity
  8
USP-GEO
100
AcDbLine
 10
1.471829477407482
 20
10.03750000000002
 30
0.0
 11
1.471829477407482
 21
9.962500000000037
 31
0.0
  0
LINE
  5
65
100
AcDbEntity
  8
USP-GEO
100
AcDbLine
 10
1.397129477407482
 20
10.03750000000002
 30
0.0
 11
1.397129477407482
 21
9.962500000000037
 31
0.0
  0
LINE
  5
66
100
AcDbEntity
  8
USP-GEO
100
AcDbLine
 10
1.471829477407482
 20
9.900000000000037
 30
0.0
 11
1.397129477407478
 21
9.900000000000037
 31
0.0
  0
LINE
  5
67
100
AcDbEntity
  8
USP-GEO
100
AcDbLine
 10
1.471829477407482
 20
9.900000000000037
 30
0.0
 11
1.471829477407482
 21
9.962500000000037
 31
0.0
  0
LINE
  5
68
100
AcDbEntity
  8
USP-GEO
100
AcDbLine
 10
1.397129477407478
 20
9.962500000000037
 30
0.0
 11
1.397129477407478
 21
9.900000000000034
 31
0.0
  0
LINE
  5
69
100
AcDbEntity
  8
USP-GEO
100
AcDbLine
 10
1.471829477407482
 20
10.10000000000002
 30
0.0
 11
1.397129477407478
 21
10.10000000000002
 31
0.0
  0
LINE
  5
6A
100
AcDbEntity
  8
USP-GEO
100
AcDbLine
 10
1.471829477407482
 20
10.03750000000002
 30
0.0
 11
1.471829477407482
 21
10.10000000000002
 31
0.0
  0
LINE
  5
6B
100
AcDbEntity
  8
USP-GEO
100
AcDbLine
 10
1.397129477407482
 20
10.10000000000002
 30
0.0
 11
1.397129477407482
 21
10.03750000000002
 31
0.0
  0
LINE
  5
6C
100
AcDbEntity
  8
USP-GEO
100
AcDbLine
 10
1.471829477407482
 20
12.22033388133288
 30
0.0
 11
1.471829477407482
 21
12.69529299662463
 31
0.0
  0
LINE
  5
6D
100
AcDbEntity
  8
USP-GEO
100
AcDbLine
 10
1.397129477407478
 20
12.69529299662464
 30
0.0
 11
1.397129477407478
 21
12.22033388133288
 31
0.0
  0
LINE
  5
6E
100
AcDbEntity
  8
USP-GEO
100
AcDbLine
 10
1.471829477407482
 20
12.15342291538636
 30
0.0
 11
1.471829477407482
 21
12.22033388133288
 31
0.0
  0
LINE
  5
6F
100
AcDbEntity
  8
USP-GEO
100
AcDbLine
 10
1.397129477407482
 20
12.22033388133288
 30
0.0
 11
1.397129477407482
 21
12.15342291538635
 31
0.0
  0
LINE
  5
70
100
AcDbEntity
  8
USP-GEO
100
AcDbLine
 10
1.471829477407478
 20
12.69529299662463
 30
0.0
 11
1.471829477407478
 21
12.72384177090481
 31
0.0
  0
LINE
  5
71
100
AcDbEntity
  8
USP-GEO
100
AcDbLine
 10
1.397129477407478
 20
12.73981776711731
 30
0.0
 11
1.397129477407478
 21
12.69529299662464
 31
0.0
  0
LINE
  5
72
100
AcDbEntity
  8
USP-GEO
100
AcDbLine
 10
1.397129477407482
 20
12.74999999999981
 30
0.0
 11
1.396432262041081
 21
12.74999999999981
 31
0.0
  0
ARC
  5
73
100
AcDbEntity
  8
USP-GEO
100
AcDbCircle
 10
1.322429477407482
 20
12.73981776711731
 30
0.0
 40
0.0747
100
AcDbArc
 50
7.834281563547789
 51
15.52411099675487
  0
LINE
  5
74
100
AcDbEntity
  8
USP-GEO
100
AcDbLine
 10
1.397129477407482
 20
12.74999999999981
 30
0.0
 11
1.445671248264662
 21
12.74999999999981
 31
0.0
  0
SPLINE
  5
75
100
AcDbEntity
  8
USP-GEO
100
AcDbSpline
210
0.0
220
0.0
230
1.0
 70
     8
 71
     3
 72
    10
 73
     6
 74
     0
 42
0.0000001
 43
0.0000001
 40
-0.0384991965579223
 40
-0.0384991965579223
 40
-0.0384991965579223
 40
-0.0384991965579223
 40
-0.0355730724160492
 40
-0.0355730724160492
 40
0.0
 40
0.0
 40
0.0
 40
0.0
 10
1.397129477407478
 20
12.73981776711731
 30
0.0
 10
1.397129477407482
 20
12.74032447824578
 30
0.0
 10
1.397124324123211
 20
12.74081394919319
 30
0.0
 10
1.397002372431362
 20
12.7470191978053
 30
0.0
 10
1.396432262041077
 20
12.74999999999981
 30
0.0
 10
1.396432262041077
 20
12.74999999999981
 30
0.0
  0
SPLINE
  5
76
100
AcDbEntity
  8
USP-GEO
100
AcDbSpline
210
0.0
220
0.0
230
-1.0
 70
     8
 71
     3
 72
    16
 73
    12
 74
     0
 42
0.0000001
 43
0.0000001
 40
0.2240498571681777
 40
0.2240498571681777
 40
0.2240498571681777
 40
0.2240498571681777
 40
0.2387433890641005
 40
0.2387433890641005
 40
0.2553247047767967
 40
0.2553247047767967
 40
0.271906020489493
 40
0.271906020489493
 40
0.2903591298352048
 40
0.2903591298352048
 40
0.2939572683204628
 40
0.2939572683204628
 40
0.2939572683204628
 40
0.2939572683204628
 10
1.471829477407482
 20
12.72384177090481
 30
0.0
 10
1.471829477405691
 20
12.72766752975827
 30
0.0
 10
1.471611173118009
 20
12.73111692182364
 30
0.0
 10
1.470427731908568
 20
12.73750210989137
 30
0.0
 10
1.469281567061411
 20
12.74061907764767
 30
0.0
 10
1.465599913172926
 20
12.74540053395864
 30
0.0
 10
1.463045623503493
 20
12.74707722268856
 30
0.0
 10
1.456883983447283
 20
12.74928704142158
 30
0.0
 10
1.452933484344605
 20
12.74981850316397
 30
0.0
 10
1.447507364374875
 20
12.74998758223437
 30
0.0
 10
1.446599788451678
 20
12.74999999999981
 30
0.0
 10
1.445671248264662
 20
12.74999999999981
 30
0.0
  0
LINE
  5
77
100
AcDbEntity
  8
USP-GEO
100
AcDbLine
 10
1.240879477407478
 20
19.89999999999998
 30
0.0
 11
1.240879477407478
 21
17.84657708461353
 31
0.0
  0
LINE
  5
78
100
AcDbEntity
  8
USP-GEO
100
AcDbLine
 10
-0.0091205225925215
 20
19.89999999999997
 30
0.0
 11
-0.0091205225925215
 21
17.84657708461339
 31
0.0
  0
ARC
  5
79
100
AcDbEntity
  8
USP-GEO
100
AcDbCircle
 10
0.2408794774074821
 20
17.84657708461339
 30
0.0
 40
0.2500000000000001
100
AcDbArc
 50
180.0000000000004
 51
195.5241109967574
  0
CIRCLE
  5
7A
100
AcDbEntity
  8
USP-GEO
100
AcDbCircle
 10
0.4908794774074821
 20
18.6875
 30
0.0
 40
0.078
  0
LINE
  5
7B
100
AcDbEntity
  8
USP-GEO
100
AcDbLine
 10
1.249999999999996
 20
17.77966611866701
 30
0.0
 11
1.397129477407478
 21
17.25000000000008
 31
0.0
  0
LINE
  5
7C
100
AcDbEntity
  8
USP-GEO
100
AcDbLine
 10
1.44567124826467
 20
17.25000000000008
 30
0.0
 11
1.397129477407478
 21
17.25000000000008
 31
0.0
  0
SPLINE
  5
7D
100
AcDbEntity
  8
USP-GEO
100
AcDbSpline
210
0.0
220
0.0
230
1.0
 70
     8
 71
     3
 72
    16
 73
    12
 74
     0
 42
0.0000001
 43
0.0000001
 40
0.0517611895518878
 40
0.0517611895518878
 40
0.0517611895518878
 40
0.0517611895518878
 40
0.055359328037137
 40
0.055359328037137
 40
0.0738124373828493
 40
0.0738124373828493
 40
0.0903937530955462
 40
0.0903937530955462
 40
0.106975068808243
 40
0.106975068808243
 40
0.1216686007653523
 40
0.1216686007653523
 40
0.1216686007653523
 40
0.1216686007653523
 10
1.44567124826467
 20
17.25000000000008
 30
0.0
 10
1.446599788451681
 20
17.25000000000008
 30
0.0
 10
1.447507364374875
 20
17.24998758223464
 30
0.0
 10
1.452933484344608
 20
17.24981850316423
 30
0.0
 10
1.45688398344728
 20
17.24928704142185
 30
0.0
 10
1.463045623503493
 20
17.24707722268883
 30
0.0
 10
1.465599913172926
 20
17.24540053395891
 30
0.0
 10
1.469281567061411
 20
17.24061907764793
 30
0.0
 10
1.470427731908568
 20
17.23750210989164
 30
0.0
 10
1.471611173120319
 20
17.23111692181142
 30
0.0
 10
1.471829477407478
 20
17.22766752972977
 30
0.0
 10
1.471829477407478
 20
17.22384177085727
 30
0.0
  0
ARC
  5
7E
100
AcDbEntity
  8
USP-GEO
100
AcDbCircle
 10
1.490879477407482
 20
17.84657708461352
 30
0.0
 40
0.2500000000000001
100
AcDbArc
 50
179.9999999999987
 51
195.5241109967544
  0
ARC
  5
7F
100
AcDbEntity
  8
USP-GEO
100
AcDbCircle
 10
-0.0091205225925215
 20
19.96249999999998
 30
0.0
 40
0.0625
100
AcDbArc
 50
270.0000000000032
 51
0.0
  0
ARC
  5
80
100
AcDbEntity
  8
USP-GEO
100
AcDbCircle
 10
-0.0091205225925215
 20
20.03749999999996
 30
0.0
 40
0.0625
100
AcDbArc
 50
0.0000000000015776
 51
90.0
  0
LINE
  5
81
100
AcDbEntity
  8
USP-GEO
100
AcDbLine
 10
0.0533794774074785
 20
19.96249999999998
 30
0.0
 11
0.0533794774074785
 21
20.03749999999997
 31
0.0
  0
CIRCLE
  5
82
100
AcDbEntity
  8
USP-GEO
100
AcDbCircle
 10
0.2408794774074785
 20
20.6875
 30
0.0
 40
0.078
  0
CIRCLE
  5
83
100
AcDbEntity
  8
USP-GEO
100
AcDbCircle
 10
0.7408794774074785
 20
19.6875
 30
0.0
 40
0.078
  0
ARC
  5
84
100
AcDbEntity
  8
USP-GEO
100
AcDbCircle
 10
1.240879477407478
 20
19.96249999999998
 30
0.0
 40
0.0625
100
AcDbArc
 50
179.9999999999991
 51
270.0000000000032
  0
ARC
  5
85
100
AcDbEntity
  8
USP-GEO
100
AcDbCircle
 10
1.240879477407478
 20
20.03749999999997
 30
0.0
 40
0.0625
100
AcDbArc
 50
90.0
 51
179.9999999999991
  0
LINE
  5
86
100
AcDbEntity
  8
USP-GEO
100
AcDbLine
 10
1.178379477407478
 20
19.96249999999998
 30
0.0
 11
1.178379477407478
 21
20.03749999999997
 31
0.0
  0
CIRCLE
  5
87
100
AcDbEntity
  8
USP-GEO
100
AcDbCircle
 10
0.9908794774074785
 20
20.3125
 30
0.0
 40
0.078
  0
CIRCLE
  5
88
100
AcDbEntity
  8
USP-GEO
100
AcDbCircle
 10
0.8658794774074785
 20
25.3125
 30
0.0
 40
0.078
  0
CIRCLE
  5
89
100
AcDbEntity
  8
USP-GEO
100
AcDbCircle
 10
0.8658794774074785
 20
23.3125
 30
0.0
 40
0.078
  0
CIRCLE
  5
8A
100
AcDbEntity
  8
USP-GEO
100
AcDbCircle
 10
0.3658794774074785
 20
21.6875
 30
0.0
 40
0.078
  0
CIRCLE
  5
8B
100
AcDbEntity
  8
USP-GEO
100
AcDbCircle
 10
0.2408794774074785
 20
22.6875
 30
0.0
 40
0.078
  0
CIRCLE
  5
8C
100
AcDbEntity
  8
USP-GEO
100
AcDbCircle
 10
0.8658794774074785
 20
21.3125
 30
0.0
 40
0.078
  0
CIRCLE
  5
8D
100
AcDbEntity
  8
USP-GEO
100
AcDbCircle
 10
0.9908794774074785
 20
22.3125
 30
0.0
 40
0.078
  0
CIRCLE
  5
8E
100
AcDbEntity
  8
USP-GEO
100
AcDbCircle
 10
0.3658794774074785
 20
23.6875
 30
0.0
 40
0.078
  0
CIRCLE
  5
8F
100
AcDbEntity
  8
USP-GEO
100
AcDbCircle
 10
0.2408794774074785
 20
24.6875
 30
0.0
 40
0.078
  0
CIRCLE
  5
90
100
AcDbEntity
  8
USP-GEO
100
AcDbCircle
 10
0.9908794774074785
 20
24.3125
 30
0.0
 40
0.078
  0
CIRCLE
  5
91
100
AcDbEntity
  8
USP-GEO
100
AcDbCircle
 10
0.8658794774074749
 20
27.3125
 30
0.0
 40
0.078
  0
CIRCLE
  5
92
100
AcDbEntity
  8
USP-GEO
100
AcDbCircle
 10
0.3658794774074785
 20
25.6875
 30
0.0
 40
0.078
  0
CIRCLE
  5
93
100
AcDbEntity
  8
USP-GEO
100
AcDbCircle
 10
0.2408794774074749
 20
26.6875
 30
0.0
 40
0.078
  0
CIRCLE
  5
94
100
AcDbEntity
  8
USP-GEO
100
AcDbCircle
 10
0.9908794774074749
 20
26.3125
 30
0.0
 40
0.078
  0
CIRCLE
  5
95
100
AcDbEntity
  8
USP-GEO
100
AcDbCircle
 10
0.615879477407475
 20
28.5
 30
0.0
 40
0.15625
  0
CIRCLE
  5
96
100
AcDbEntity
  8
USP-GEO
100
AcDbCircle
 10
0.3658794774074749
 20
27.6875
 30
0.0
 40
0.078
  0
CIRCLE
  5
97
100
AcDbEntity
  8
USP-GEO
100
AcDbCircle
 10
0.2408794774074749
 20
28.6875
 30
0.0
 40
0.078
  0
CIRCLE
  5
98
100
AcDbEntity
  8
USP-GEO
100
AcDbCircle
 10
0.9908794774074749
 20
28.3125
 30
0.0
 40
0.078
  0
CIRCLE
  5
99
100
AcDbEntity
  8
USP-GEO
100
AcDbCircle
 10
0.8658794774074749
 20
29.3125
 30
0.0
 40
0.078
  0
LINE
  5
9A
100
AcDbEntity
  8
USP-GEO
100
AcDbLine
 10
1.064102782110836
 20
30.0
 30
0.0
 11
0.1676561727041133
 21
30.0
 31
0.0
  0
LINE
  5
9B
100
AcDbEntity
  8
USP-GEO
100
AcDbLine
 10
-0.0091205225925108
 20
29.8232233047034
 30
0.0
 11
0.1676561727041133
 21
30.0
 31
0.0
  0
CIRCLE
  5
9C
100
AcDbEntity
  8
USP-GEO
100
AcDbCircle
 10
0.3658794774074749
 20
29.6875
 30
0.0
 40
0.078
  0
LINE
  5
9D
100
AcDbEntity
  8
USP-GEO
100
AcDbLine
 10
1.240879477407489
 20
29.82322330470335
 30
0.0
 11
1.064102782110836
 21
30.0
 31
0.0
  0
ENDBLK
  5
9F
100
AcDbEntity
  8
0
100
AcDbBlockEnd
  0
ENDSEC
  0
SECTION
  2
ENTITIES
  0
INSERT
  5
3
100
AcDbEntity
  8
USP
100
AcDbBlockReference
  2
HTW30C_F
 10
6.563375651917567
 20
2.028472139334681
 30
0.0000000000000037
  0
INSERT
  5
52
100
AcDbEntity
  8
USP
100
AcDbBlockReference
  2
HTW30C_S
 10
21.39265206726635
 20
2.028472139334677
 30
0.0
  0
ENDSEC
  0
SECTION
  2
OBJECTS
  0
DICTIONARY
  5
BB
102
{ACAD_XDICTIONARY
360
BC
102
}
100
AcDbDictionary
  3
ACAD_GROUP
350
B8
  3
ACAD_MLINESTYLE
350
B9
  0
DICTIONARY
  5
AD
100
AcDbDictionary
280
     1
  0
DICTIONARY
  5
AF
100
AcDbDictionary
280
     1
  0
DICTIONARY
  5
6
100
AcDbDictionary
280
     1
  0
DICTIONARY
  5
E
100
AcDbDictionary
280
     1
  0
DICTIONARY
  5
C0
100
AcDbDictionary
280
     1
  0
DICTIONARY
  5
A0
100
AcDbDictionary
280
     1
  3
ACAD_LAYOUTSELFREF
360
A1
  0
DICTIONARY
  5
A5
100
AcDbDictionary
280
     1
  3
ACAD_LAYOUTSELFREF
360
A6
  0
DICTIONARY
  5
BC
100
AcDbDictionary
280
     1
  3
ACAD_XREC_ROUNDTRIP
360
BD
  0
DICTIONARY
  5
B8
102
{ACAD_REACTORS
330
BB
102
}
100
AcDbDictionary
  0
DICTIONARY
  5
B9
102
{ACAD_XDICTIONARY
360
BA
102
}
102
{ACAD_REACTORS
330
BB
102
}
100
AcDbDictionary
  3
STANDARD
350
BE
  0
XRECORD
  5
A1
102
{ACAD_REACTORS
330
A0
102
}
100
AcDbXrecord
340
2
  0
XRECORD
  5
A6
102
{ACAD_REACTORS
330
A5
102
}
100
AcDbXrecord
340
A6
  0
XRECORD
  5
BD
102
{ACAD_REACTORS
330
BC
102
}
100
AcDbXrecord
102
EXTNAMES
  1
ACDBVARIABLEDICTIONARY
  2
AcDbVariableDictionary
  0
DICTIONARY
  5
BA
100
AcDbDictionary
280
     1
  0
MLINESTYLE
  5
BE
102
{ACAD_REACTORS
330
B9
102
}
100
AcDbMlineStyle
  2
STANDARD
 70
     0
  3

 62
   256
 51
90.0
 52
90.0
 71
     2
 49
0.5
 62
   256
  6
BYLAYER
 49
-0.5
 62
   256
  6
BYLAYER
  0
ENDSEC
  0
EOF
