  0
SECTION
  2
HEADER
  9
$ACADVER
  1
AC1014
  9
$ACADMAINTVER
 70
     9
  9
$DWGCODEPAGE
  3
ANSI_1252
  9
$INSBASE
 10
0.0
 20
0.0
 30
0.0
  9
$EXTMIN
 10
0.0005630348678665
 20
0.0005237070716575
 30
0.0
  9
$EXTMAX
 10
18.45147729035241
 20
17.16207050745617
 30
0.000000000000002
  9
$LIMMIN
 10
0.0
 20
0.0
  9
$LIMMAX
 10
12.0
 20
9.0
  9
$ORTHOMODE
 70
     0
  9
$REGENMODE
 70
     1
  9
$FILLMODE
 70
     1
  9
$QTEXTMODE
 70
     0
  9
$MIRRTEXT
 70
     1
  9
$DRAGMODE
 70
     2
  9
$LTSCALE
 40
1.0
  9
$OSMODE
 70
    37
  9
$ATTMODE
 70
     1
  9
$TEXTSIZE
 40
0.5
  9
$TRACEWID
 40
0.05
  9
$TEXTSTYLE
  7
STANDARD
  9
$CLAYER
  8
0
  9
$CELTYPE
  6
BYLAYER
  9
$CECOLOR
 62
   256
  9
$CELTSCALE
 40
1.0
  9
$DELOBJ
 70
     1
  9
$DISPSILH
 70
     0
  9
$DIMSCALE
 40
1.0
  9
$DIMASZ
 40
0.18
  9
$DIMEXO
 40
0.0625
  9
$DIMDLI
 40
0.38
  9
$DIMRND
 40
0.0
  9
$DIMDLE
 40
0.0
  9
$DIMEXE
 40
0.18
  9
$DIMTP
 40
0.0
  9
$DIMTM
 40
0.0
  9
$DIMTXT
 40
0.18
  9
$DIMCEN
 40
0.09
  9
$DIMTSZ
 40
0.0
  9
$DIMTOL
 70
     0
  9
$DIMLIM
 70
     0
  9
$DIMTIH
 70
     1
  9
$DIMTOH
 70
     1
  9
$DIMSE1
 70
     0
  9
$DIMSE2
 70
     0
  9
$DIMTAD
 70
     0
  9
$DIMZIN
 70
     0
  9
$DIMBLK
  1

  9
$DIMASO
 70
     1
  9
$DIMSHO
 70
     1
  9
$DIMPOST
  1

  9
$DIMAPOST
  1

  9
$DIMALT
 70
     0
  9
$DIMALTD
 70
     2
  9
$DIMALTF
 40
25.4
  9
$DIMLFAC
 40
1.0
  9
$DIMTOFL
 70
     0
  9
$DIMTVP
 40
0.0
  9
$DIMTIX
 70
     0
  9
$DIMSOXD
 70
     0
  9
$DIMSAH
 70
     0
  9
$DIMBLK1
  1

  9
$DIMBLK2
  1

  9
$DIMSTYLE
  2
STANDARD
  9
$DIMCLRD
 70
     0
  9
$DIMCLRE
 70
     0
  9
$DIMCLRT
 70
     0
  9
$DIMTFAC
 40
1.0
  9
$DIMGAP
 40
0.09
  9
$DIMJUST
 70
     0
  9
$DIMSD1
 70
     0
  9
$DIMSD2
 70
     0
  9
$DIMTOLJ
 70
     1
  9
$DIMTZIN
 70
     0
  9
$DIMALTZ
 70
     0
  9
$DIMALTTZ
 70
     0
  9
$DIMFIT
 70
     3
  9
$DIMUPT
 70
     0
  9
$DIMUNIT
 70
     2
  9
$DIMDEC
 70
     4
  9
$DIMTDEC
 70
     4
  9
$DIMALTU
 70
     2
  9
$DIMALTTD
 70
     2
  9
$DIMTXSTY
  7
STANDARD
  9
$DIMAUNIT
 70
     0
  9
$LUNITS
 70
     2
  9
$LUPREC
 70
     4
  9
$SKETCHINC
 40
0.1
  9
$FILLETRAD
 40
0.5
  9
$AUNITS
 70
     0
  9
$AUPREC
 70
     0
  9
$MENU
  1
.
  9
$ELEVATION
 40
0.0
  9
$PELEVATION
 40
0.0
  9
$THICKNESS
 40
0.0
  9
$LIMCHECK
 70
     0
  9
$BLIPMODE
 70
     0
  9
$CHAMFERA
 40
0.5
  9
$CHAMFERB
 40
0.5
  9
$CHAMFERC
 40
1.0
  9
$CHAMFERD
 40
0.0
  9
$SKPOLY
 70
     0
  9
$TDCREATE
 40
2451675.885797453
  9
$TDUPDATE
 40
2452759.745099826
  9
$TDINDWG
 40
0.0296603472
  9
$TDUSRTIMER
 40
0.0296521296
  9
$USRTIMER
 70
     1
  9
$ANGBASE
 50
0.0
  9
$ANGDIR
 70
     0
  9
$PDMODE
 70
     0
  9
$PDSIZE
 40
0.0
  9
$PLINEWID
 40
0.0
  9
$COORDS
 70
     1
  9
$SPLFRAME
 70
     0
  9
$SPLINETYPE
 70
     6
  9
$SPLINESEGS
 70
     8
  9
$ATTDIA
 70
     0
  9
$ATTREQ
 70
     1
  9
$HANDLING
 70
     1
  9
$HANDSEED
  5
B4
  9
$SURFTAB1
 70
     6
  9
$SURFTAB2
 70
     6
  9
$SURFTYPE
 70
     6
  9
$SURFU
 70
     6
  9
$SURFV
 70
     6
  9
$UCSNAME
  2

  9
$UCSORG
 10
0.0
 20
0.0
 30
0.0
  9
$UCSXDIR
 10
1.0
 20
0.0
 30
0.0
  9
$UCSYDIR
 10
0.0
 20
1.0
 30
0.0
  9
$PUCSNAME
  2

  9
$PUCSORG
 10
0.0
 20
0.0
 30
0.0
  9
$PUCSXDIR
 10
1.0
 20
0.0
 30
0.0
  9
$PUCSYDIR
 10
0.0
 20
1.0
 30
0.0
  9
$USERI1
 70
     0
  9
$USERI2
 70
     0
  9
$USERI3
 70
     0
  9
$USERI4
 70
     0
  9
$USERI5
 70
     0
  9
$USERR1
 40
0.0
  9
$USERR2
 40
0.0
  9
$USERR3
 40
0.0
  9
$USERR4
 40
0.0
  9
$USERR5
 40
0.0
  9
$WORLDVIEW
 70
     1
  9
$SHADEDGE
 70
     3
  9
$SHADEDIF
 70
    70
  9
$TILEMODE
 70
     1
  9
$MAXACTVP
 70
    48
  9
$PINSBASE
 10
0.0
 20
0.0
 30
0.0
  9
$PLIMCHECK
 70
     0
  9
$PEXTMIN
 10
1.000000000000000E+20
 20
1.000000000000000E+20
 30
1.000000000000000E+20
  9
$PEXTMAX
 10
-1.000000000000000E+20
 20
-1.000000000000000E+20
 30
-1.000000000000000E+20
  9
$PLIMMIN
 10
0.0
 20
0.0
  9
$PLIMMAX
 10
12.0
 20
9.0
  9
$UNITMODE
 70
     0
  9
$VISRETAIN
 70
     1
  9
$PLINEGEN
 70
     0
  9
$PSLTSCALE
 70
     1
  9
$TREEDEPTH
 70
  3020
  9
$PICKSTYLE
 70
     1
  9
$CMLSTYLE
  2
STANDARD
  9
$CMLJUST
 70
     0
  9
$CMLSCALE
 40
1.0
  9
$PROXYGRAPHICS
 70
     1
  9
$MEASUREMENT
 70
     0
  0
ENDSEC
  0
SECTION
  2
CLASSES
  0
CLASS
  1
ACDBDICTIONARYWDFLT
  2
AcDbDictionaryWithDefault
  3
AutoCAD 2000
 90
        0
280
     1
281
     0
  0
CLASS
  1
ACDBPLACEHOLDER
  2
AcDbPlaceHolder
  3
AutoCAD 2000
 90
        0
280
     1
281
     0
  0
CLASS
  1
LAYOUT
  2
AcDbLayout
  3
AutoCAD 2000
 90
        0
280
     1
281
     0
  0
CLASS
  1
LONG_TRANSACTION
  2
AcDbLongTransaction
  3
AutoCAD 2000
 90
        0
280
     1
281
     0
  0
CLASS
  1
LWPOLYLINE
  2
AcDbPolyline
  3
"AutoCAD"
 90
        0
280
     1
281
     1
  0
CLASS
  1
HATCH
  2
AcDbHatch
  3
"ACAD_SEDONA"
 90
        0
280
     1
281
     1
  0
CLASS
  1
XRECORD
  2
AcDbXrecord
  3
"<Built In>"
 90
        0
280
     0
281
     0
  0
CLASS
  1
LONG_TRANSACTION
  2
AcDbLongTransaction
  3
AutoCAD 2000
 90
        0
280
     1
281
     0
  0
CLASS
  1
LWPOLYLINE
  2
AcDbPolyline
  3
"AutoCAD"
 90
        0
280
     1
281
     1
  0
CLASS
  1
HATCH
  2
AcDbHatch
  3
"ACAD_SEDONA"
 90
        0
280
     1
281
     1
  0
CLASS
  1
XRECORD
  2
AcDbXrecord
  3
"<Built In>"
 90
        0
280
     0
281
     0
  0
CLASS
  1
LONG_TRANSACTION
  2
AcDbLongTransaction
  3
AutoCAD 2000
 90
        0
280
     1
281
     0
  0
CLASS
  1
LWPOLYLINE
  2
AcDbPolyline
  3
"AutoCAD"
 90
        0
280
     1
281
     1
  0
CLASS
  1
HATCH
  2
AcDbHatch
  3
"ACAD_SEDONA"
 90
        0
280
     1
281
     1
  0
CLASS
  1
XRECORD
  2
AcDbXrecord
  3
"<Built In>"
 90
        0
280
     0
281
     0
  0
CLASS
  1
LONG_TRANSACTION
  2
AcDbLongTransaction
  3
AutoCAD 2000
 90
        0
280
     1
281
     0
  0
CLASS
  1
LWPOLYLINE
  2
AcDbPolyline
  3
"AutoCAD"
 90
        0
280
     1
281
     1
  0
CLASS
  1
HATCH
  2
AcDbHatch
  3
"ACAD_SEDONA"
 90
        0
280
     1
281
     1
  0
CLASS
  1
XRECORD
  2
AcDbXrecord
  3
"<Built In>"
 90
        0
280
     0
281
     0
  0
CLASS
  1
DICTIONARYVAR
  2
AcDbDictionaryVar
  3
"AutoCAD"
 90
        0
280
     0
281
     0
  0
CLASS
  1
LONG_TRANSACTION
  2
AcDbLongTransaction
  3
AutoCAD 2000
 90
        0
280
     0
281
     0
  0
CLASS
  1
LWPOLYLINE
  2
AcDbPolyline
  3
"AutoCAD"
 90
        0
280
     0
281
     1
  0
CLASS
  1
HATCH
  2
AcDbHatch
  3
"ACAD_SEDONA"
 90
        0
280
     0
281
     1
  0
CLASS
  1
XRECORD
  2
AcDbXrecord
  3
"<Built In>"
 90
        0
280
     0
281
     0
  0
CLASS
  1
LONG_TRANSACTION
  2
AcDbLongTransaction
  3
AutoCAD 2000
 90
        0
280
     0
281
     0
  0
CLASS
  1
LWPOLYLINE
  2
AcDbPolyline
  3
"AutoCAD"
 90
        0
280
     0
281
     1
  0
CLASS
  1
HATCH
  2
AcDbHatch
  3
"ACAD_SEDONA"
 90
        0
280
     0
281
     1
  0
CLASS
  1
XRECORD
  2
AcDbXrecord
  3
"<Built In>"
 90
        0
280
     0
281
     0
  0
ENDSEC
  0
SECTION
  2
TABLES
  0
TABLE
  2
VPORT
  5
94
100
AcDbSymbolTable
 70
     1
  0
VPORT
  5
B0
100
AcDbSymbolTableRecord
100
AcDbViewportTableRecord
  2
*ACTIVE
 70
     0
 10
0.0
 20
0.0
 11
1.0
 21
1.0
 12
9.226442642061387
 22
8.793056539793525
 13
0.0
 23
0.0
 14
0.5
 24
0.5
 15
0.5
 25
0.5
 16
0.0
 26
0.0
 36
1.0
 17
0.0
 27
0.0
 37
0.0
 40
17.71147799913211
 41
1.457627118644067
 42
50.0
 43
0.0
 44
0.0
 50
0.0
 51
0.0
 71
     0
 72
   100
 73
     1
 74
     3
 75
     0
 76
     0
 77
     0
 78
     0
  0
ENDTAB
  0
TABLE
  2
LTYPE
  5
8D
100
AcDbSymbolTable
 70
     2
  0
LTYPE
  5
8E
102
{ACAD_XDICTIONARY
360
8F
102
}
100
AcDbSymbolTableRecord
100
AcDbLinetypeTableRecord
  2
BYBLOCK
 70
     0
  3

 72
    65
 73
     0
 40
0.0
  0
LTYPE
  5
90
102
{ACAD_XDICTIONARY
360
91
102
}
100
AcDbSymbolTableRecord
100
AcDbLinetypeTableRecord
  2
BYLAYER
 70
     0
  3

 72
    65
 73
     0
 40
0.0
  0
LTYPE
  5
5
102
{ACAD_XDICTIONARY
360
6
102
}
100
AcDbSymbolTableRecord
100
AcDbLinetypeTableRecord
  2
CONTINUOUS
 70
     0
  3
Solid line
 72
    65
 73
     0
 40
0.0
  0
LTYPE
  5
59
100
AcDbSymbolTableRecord
100
AcDbLinetypeTableRecord
  2
HIDDEN
 70
     0
  3
Hidden __ __ __ __ __ __ __ __ __ __ __ __ __ _
 72
    65
 73
     2
 40
0.375
 49
0.25
 74
     0
 49
-0.125
 74
     0
  0
ENDTAB
  0
TABLE
  2
LAYER
  5
8B
100
AcDbSymbolTable
 70
     5
  0
LAYER
  5
41
100
AcDbSymbolTableRecord
100
AcDbLayerTableRecord
  2
0
 70
     0
 62
     7
  6
CONTINUOUS
  0
LAYER
  5
D
100
AcDbSymbolTableRecord
100
AcDbLayerTableRecord
  2
USP-GEO
 70
     0
 62
     7
  6
CONTINUOUS
  0
LAYER
  5
9
100
AcDbSymbolTableRecord
100
AcDbLayerTableRecord
  2
USP-TXT
 70
     0
 62
     7
  6
CONTINUOUS
  0
LAYER
  5
58
100
AcDbSymbolTableRecord
100
AcDbLayerTableRecord
  2
USP-HID
 70
     0
 62
     7
  6
HIDDEN
  0
LAYER
  5
4
100
AcDbSymbolTableRecord
100
AcDbLayerTableRecord
  2
USP
 70
     0
 62
     7
  6
CONTINUOUS
  0
ENDTAB
  0
TABLE
  2
STYLE
  5
8C
100
AcDbSymbolTable
 70
     1
  0
STYLE
  5
A
102
{ACAD_XDICTIONARY
360
B
102
}
100
AcDbSymbolTableRecord
100
AcDbTextStyleTableRecord
  2
STANDARD
 70
     0
 40
0.0
 41
1.0
 50
0.0
 71
     0
 42
0.5
  3
txt
  4

  0
ENDTAB
  0
TABLE
  2
VIEW
  5
92
100
AcDbSymbolTable
 70
     0
  0
ENDTAB
  0
TABLE
  2
UCS
  5
93
100
AcDbSymbolTable
 70
     0
  0
ENDTAB
  0
TABLE
  2
APPID
  5
96
100
AcDbSymbolTable
 70
     1
  0
APPID
  5
97
100
AcDbSymbolTableRecord
100
AcDbRegAppTableRecord
  2
ACAD
 70
     0
  0
ENDTAB
  0
TABLE
  2
DIMSTYLE
  5
98
100
AcDbSymbolTable
 70
     1
  0
DIMSTYLE
105
A1
102
{ACAD_XDICTIONARY
360
A2
102
}
100
AcDbSymbolTableRecord
100
AcDbDimStyleTableRecord
  2
STANDARD
 70
     0
  3

  4

  5

  6

  7

 40
1.0
 41
0.18
 42
0.0625
 43
0.38
 44
0.18
 45
0.0
 46
0.0
 47
0.0
 48
0.0
140
0.18
141
0.09
142
0.0
143
25.4
144
1.0
145
0.0
146
1.0
147
0.09
 71
     0
 72
     0
 73
     1
 74
     1
 75
     0
 76
     0
 77
     0
 78
     0
170
     0
171
     2
172
     0
173
     0
174
     0
175
     0
176
     0
177
     0
178
     0
270
     2
271
     4
272
     4
273
     2
274
     2
340
A
275
     0
280
     0
281
     0
282
     0
283
     1
284
     0
285
     0
286
     0
287
     3
288
     0
  0
ENDTAB
  0
TABLE
  2
BLOCK_RECORD
  5
1
100
AcDbSymbolTable
 70
     2
  0
BLOCK_RECORD
  5
2
102
{ACAD_XDICTIONARY
360
82
102
}
100
AcDbSymbolTableRecord
100
AcDbBlockTableRecord
  2
*MODEL_SPACE
  0
BLOCK_RECORD
  5
86
102
{ACAD_XDICTIONARY
360
87
102
}
100
AcDbSymbolTableRecord
100
AcDbBlockTableRecord
  2
*PAPER_SPACE
  0
BLOCK_RECORD
  5
7
100
AcDbSymbolTableRecord
100
AcDbBlockTableRecord
  2
HTW16_F
  0
BLOCK_RECORD
  5
44
100
AcDbSymbolTableRecord
100
AcDbBlockTableRecord
  2
HTW16_S
  0
ENDTAB
  0
ENDSEC
  0
SECTION
  2
BLOCKS
  0
BLOCK
  5
84
100
AcDbEntity
  8
0
100
AcDbBlockBegin
  2
*MODEL_SPACE
 70
     0
 10
0.0
 20
0.0
 30
0.0
  3
*MODEL_SPACE
  1

  0
ENDBLK
  5
85
100
AcDbEntity
  8
0
100
AcDbBlockEnd
  0
BLOCK
  5
89
100
AcDbEntity
 67
     1
  8
0
100
AcDbBlockBegin
  2
*PAPER_SPACE
 70
     0
 10
0.0
 20
0.0
 30
0.0
  3
*PAPER_SPACE
  1

  0
ENDBLK
  5
8A
100
AcDbEntity
 67
     1
  8
0
100
AcDbBlockEnd
  0
BLOCK
  5
40
100
AcDbEntity
  8
0
100
AcDbBlockBegin
  2
HTW16_F
 70
     0
 10
0.0
 20
0.0
 30
0.0
  3
HTW16_F
  1

  0
TEXT
  5
8
100
AcDbEntity
  8
USP-TXT
100
AcDbText
 10
-3.874999999999978
 20
-1.161546800384513
 30
0.0
 40
0.5
  1
HTW16 - FRONT VIEW
 72
     1
 11
0.6250000000000205
 21
-1.161546800384513
 31
0.0
100
AcDbText
  0
ARC
  5
C
100
AcDbEntity
  8
USP-GEO
100
AcDbCircle
 10
1.250000000000006
 20
3.037500000000021
 30
-0.0000000000000004
 40
0.0625
100
AcDbArc
 50
89.99999999999998
 51
180.0
  0
ARC
  5
E
100
AcDbEntity
  8
USP-GEO
100
AcDbCircle
 10
0.000000000000008
 20
3.037500000000021
 30
-0.0000000000000004
 40
0.0625
100
AcDbArc
 50
0.0
 51
90.00000000000067
  0
LINE
  5
F
100
AcDbEntity
  8
USP-GEO
100
AcDbLine
 10
1.250000000000034
 20
2.900000000000041
 30
-0.0000000000000004
 11
1.250000000000007
 21
0.1767766952966383
 31
0.0
210
1.0
220
-0.0000000000000002
230
0.0
  0
LINE
  5
10
100
AcDbEntity
  8
USP-GEO
100
AcDbLine
 10
0.0
 20
0.1767766952966454
 30
0.0
 11
0.0000000000000053
 21
2.900000000000041
 31
-0.0000000000000004
210
1.0
220
-0.0000000000000002
230
0.0
  0
CIRCLE
  5
11
100
AcDbEntity
  8
USP-GEO
100
AcDbCircle
 10
0.6250000000000071
 20
0.4999999999999992
 30
-0.0000000000000001
 40
0.15625
  0
LINE
  5
12
100
AcDbEntity
  8
USP-GEO
100
AcDbLine
 10
1.073223304703369
 20
0.0
 30
0.0
 11
0.1767766952966721
 21
0.0
 31
0.0
210
1.0
220
-0.0000000000000002
230
0.0
  0
LINE
  5
13
100
AcDbEntity
  8
USP-GEO
100
AcDbLine
 10
0.1767766952966721
 20
0.0
 30
0.0
 11
0.0000000000000018
 21
0.1767766952966454
 31
0.0
210
1.0
220
-0.0000000000000002
230
0.0
  0
CIRCLE
  5
14
100
AcDbEntity
  8
USP-GEO
100
AcDbCircle
 10
0.2500000000000053
 20
0.3124999999999991
 30
0.0
 40
0.078
  0
LINE
  5
15
100
AcDbEntity
  8
USP-GEO
100
AcDbLine
 10
1.250000000000004
 20
0.1767766952966383
 30
0.0
 11
1.07322330470338
 21
-0.0000000000000142
 31
0.0
210
1.0
220
-0.0000000000000002
230
0.0
  0
CIRCLE
  5
16
100
AcDbEntity
  8
USP-GEO
100
AcDbCircle
 10
0.3750000000000098
 20
1.312499999999999
 30
-0.0000000000000002
 40
0.078
  0
CIRCLE
  5
17
100
AcDbEntity
  8
USP-GEO
100
AcDbCircle
 10
0.2500000000000062
 20
2.312500000000006
 30
-0.0000000000000003
 40
0.078
  0
ARC
  5
18
100
AcDbEntity
  8
USP-GEO
100
AcDbCircle
 10
0.0000000000000098
 20
2.962500000000033
 30
-0.0000000000000004
 40
0.0625
100
AcDbArc
 50
269.9999999999967
 51
0.0
  0
LINE
  5
19
100
AcDbEntity
  8
USP-GEO
100
AcDbLine
 10
0.0625000000000071
 20
2.962500000000034
 30
-0.0000000000000004
 11
0.0625000000000071
 21
3.037500000000022
 31
-0.0000000000000004
210
1.0
220
-0.0000000000000002
230
0.0
  0
CIRCLE
  5
1A
100
AcDbEntity
  8
USP-GEO
100
AcDbCircle
 10
1.000000000000008
 20
0.6874999999999983
 30
-0.0000000000000001
 40
0.078
  0
CIRCLE
  5
1B
100
AcDbEntity
  8
USP-GEO
100
AcDbCircle
 10
0.8750000000000062
 20
1.687499999999998
 30
-0.0000000000000002
 40
0.078
  0
CIRCLE
  5
1C
100
AcDbEntity
  8
USP-GEO
100
AcDbCircle
 10
1.000000000000009
 20
2.687499999999999
 30
-0.0000000000000003
 40
0.078
  0
ARC
  5
1D
100
AcDbEntity
  8
USP-GEO
100
AcDbCircle
 10
1.250000000000007
 20
2.962500000000033
 30
-0.0000000000000004
 40
0.0625
100
AcDbArc
 50
180.0
 51
270.0000000000252
  0
LINE
  5
1E
100
AcDbEntity
  8
USP-GEO
100
AcDbLine
 10
1.187500000000007
 20
3.037500000000022
 30
-0.0000000000000004
 11
1.187500000000007
 21
2.962500000000034
 31
-0.0000000000000004
210
1.0
220
-0.0000000000000002
230
0.0
  0
LINE
  5
1F
100
AcDbEntity
  8
USP-GEO
100
AcDbLine
 10
1.406250000000039
 20
10.77966611866685
 30
-0.0000000000000013
 11
1.406250000000038
 21
5.749999999999815
 31
-0.0000000000000007
210
1.0
220
-0.0000000000000002
230
0.0
  0
LINE
  5
20
100
AcDbEntity
  8
USP-GEO
100
AcDbLine
 10
1.480950000000034
 20
5.824699999999815
 30
-0.0000000000000007
 11
1.480950000000035
 21
10.77966611866685
 31
-0.0000000000000013
210
1.0
220
-0.0000000000000002
230
0.0
  0
LINE
  5
21
100
AcDbEntity
  8
USP-GEO
100
AcDbLine
 10
0.009120522592533
 20
5.220333881333033
 30
-0.0000000000000006
 11
1.391053610173599
 21
10.1952929966249
 31
-0.0000000000000012
210
1.0
220
-0.0000000000000002
230
0.0
  0
LINE
  5
22
100
AcDbEntity
  8
USP-GEO
100
AcDbLine
 10
1.480950000000038
 20
13.03749999999997
 30
-0.0000000000000016
 11
1.480950000000038
 21
13.09999999999996
 31
-0.0000000000000016
210
1.0
220
-0.0000000000000002
230
0.0
  0
LINE
  5
23
100
AcDbEntity
  8
USP-GEO
100
AcDbLine
 10
1.406250000000038
 20
13.09999999999996
 30
-0.0000000000000016
 11
1.406250000000038
 21
13.03749999999997
 31
-0.0000000000000016
210
1.0
220
-0.0000000000000002
230
0.0
  0
ARC
  5
24
100
AcDbEntity
  8
USP-GEO
100
AcDbCircle
 10
1.463028398022956
 20
10.17530000000008
 30
-0.0000000000000012
 40
0.0747
100
AcDbArc
 50
139.4717491471512
 51
164.475889003245
  0
LINE
  5
25
100
AcDbEntity
  8
USP-GEO
100
AcDbLine
 10
1.480950000000039
 20
12.89999999999998
 30
-0.0000000000000016
 11
1.480950000000039
 21
10.84657708461339
 31
-0.0000000000000013
210
1.0
220
-0.0000000000000002
230
0.0
  0
LINE
  5
26
100
AcDbEntity
  8
USP-GEO
100
AcDbLine
 10
1.406250000000038
 20
12.89999999999998
 30
-0.0000000000000016
 11
1.406250000000037
 21
10.84657708461339
 31
-0.0000000000000013
210
1.0
220
-0.0000000000000002
230
0.0
  0
LINE
  5
27
100
AcDbEntity
  8
USP-GEO
100
AcDbLine
 10
1.40625000000004
 20
10.84657708461339
 30
-0.0000000000000013
 11
1.40625000000004
 21
10.77966611866685
 31
-0.0000000000000013
210
1.0
220
-0.0000000000000002
230
0.0
  0
LINE
  5
28
100
AcDbEntity
  8
USP-GEO
100
AcDbLine
 10
1.480950000000037
 20
10.84657708461339
 30
-0.0000000000000013
 11
1.480950000000037
 21
10.77966611866685
 31
-0.0000000000000013
210
1.0
220
-0.0000000000000002
230
0.0
  0
LINE
  5
29
100
AcDbEntity
  8
USP-GEO
100
AcDbLine
 10
1.480950000000039
 20
12.89999999999998
 30
-0.0000000000000016
 11
1.406250000000038
 21
12.89999999999998
 31
-0.0000000000000016
210
1.0
220
-0.0000000000000002
230
0.0
  0
LINE
  5
2A
100
AcDbEntity
  8
USP-GEO
100
AcDbLine
 10
1.406250000000039
 20
12.96249999999998
 30
-0.0000000000000016
 11
1.406250000000039
 21
12.89999999999998
 31
-0.0000000000000016
210
1.0
220
-0.0000000000000002
230
0.0
  0
LINE
  5
2B
100
AcDbEntity
  8
USP-GEO
100
AcDbLine
 10
1.406250000000039
 20
13.03749999999997
 30
-0.0000000000000016
 11
1.406250000000039
 21
12.96249999999998
 31
-0.0000000000000016
210
1.0
220
-0.0000000000000002
230
0.0
  0
LINE
  5
2C
100
AcDbEntity
  8
USP-GEO
100
AcDbLine
 10
1.480950000000039
 20
12.89999999999998
 30
-0.0000000000000016
 11
1.480950000000039
 21
12.96249999999998
 31
-0.0000000000000016
210
1.0
220
-0.0000000000000002
230
0.0
  0
LINE
  5
2D
100
AcDbEntity
  8
USP-GEO
100
AcDbLine
 10
1.480950000000039
 20
12.96249999999998
 30
-0.0000000000000016
 11
1.480950000000039
 21
13.03749999999997
 31
-0.0000000000000016
210
1.0
220
-0.0000000000000002
230
0.0
  0
LINE
  5
2E
100
AcDbEntity
  8
USP-GEO
100
AcDbLine
 10
1.480950000000038
 20
15.82322330470339
 30
-0.0000000000000019
 11
1.480950000000038
 21
13.09999999999996
 31
-0.0000000000000016
210
1.0
220
-0.0000000000000002
230
0.0
  0
LINE
  5
2F
100
AcDbEntity
  8
USP-GEO
100
AcDbLine
 10
1.406250000000039
 20
15.82322330470339
 30
-0.0000000000000019
 11
1.406250000000039
 21
13.09999999999996
 31
-0.0000000000000016
210
1.0
220
-0.0000000000000002
230
0.0
  0
LINE
  5
30
100
AcDbEntity
  8
USP-GEO
100
AcDbLine
 10
1.480950000000039
 20
13.09999999999996
 30
-0.0000000000000016
 11
1.406250000000039
 21
13.09999999999996
 31
-0.0000000000000016
210
1.0
220
-0.0000000000000002
230
0.0
  0
LINE
  5
31
100
AcDbEntity
  8
USP-GEO
100
AcDbLine
 10
1.480950000000038
 20
15.82322330470339
 30
-0.0000000000000019
 11
1.480950000000038
 21
16.0
 31
-0.000000000000002
210
1.0
220
-0.0000000000000002
230
0.0
  0
LINE
  5
32
100
AcDbEntity
  8
USP-GEO
100
AcDbLine
 10
1.406250000000039
 20
16.0
 30
-0.000000000000002
 11
1.406250000000039
 21
15.82322330470339
 31
-0.0000000000000019
210
1.0
220
-0.0000000000000002
230
0.0
  0
LINE
  5
33
100
AcDbEntity
  8
USP-GEO
100
AcDbLine
 10
1.480950000000038
 20
15.82322330470339
 30
-0.0000000000000019
 11
1.406250000000039
 21
15.82322330470339
 31
-0.0000000000000019
210
1.0
220
-0.0000000000000002
230
0.0
  0
LINE
  5
34
100
AcDbEntity
  8
USP-GEO
100
AcDbLine
 10
1.480950000000038
 20
16.0
 30
-0.000000000000002
 11
1.406250000000038
 21
16.0
 31
-0.000000000000002
210
1.0
220
-0.0000000000000002
230
0.0
  0
LINE
  5
35
100
AcDbEntity
  8
USP-GEO
100
AcDbLine
 10
1.394585284366281
 20
5.708007023718316
 30
-0.0000000000000007
 11
1.259120522592549
 21
5.220333881332884
 31
-0.0000000000000006
210
1.0
220
-0.0000000000000002
230
0.0
  0
LINE
  5
36
100
AcDbEntity
  8
USP-GEO
100
AcDbLine
 10
0.0000000000000071
 20
3.100000000000022
 30
-0.0000000000000004
 11
0.000000000000008
 21
5.153422915386499
 31
-0.0000000000000006
210
1.0
220
-0.0000000000000002
230
0.0
  0
ARC
  5
37
100
AcDbEntity
  8
USP-GEO
100
AcDbCircle
 10
0.2500000000000062
 20
5.153422915386498
 30
-0.0000000000000006
 40
0.2500000000000001
100
AcDbArc
 50
164.4758890032429
 51
180.0
  0
CIRCLE
  5
38
100
AcDbEntity
  8
USP-GEO
100
AcDbCircle
 10
0.500000000000008
 20
4.312499999999999
 30
-0.0000000000000005
 40
0.078
  0
LINE
  5
39
100
AcDbEntity
  8
USP-GEO
100
AcDbLine
 10
1.250000000000036
 20
5.153422915386364
 30
-0.0000000000000006
 11
1.250000000000036
 21
3.100000000000022
 31
-0.0000000000000004
210
1.0
220
-0.0000000000000002
230
0.0
  0
CIRCLE
  5
3A
100
AcDbEntity
  8
USP-GEO
100
AcDbCircle
 10
0.7500000000000063
 20
3.312499999999999
 30
-0.0000000000000004
 40
0.078
  0
ARC
  5
3B
100
AcDbEntity
  8
USP-GEO
100
AcDbCircle
 10
1.500000000000034
 20
5.153422915386363
 30
-0.0000000000000006
 40
0.2500000000000001
100
AcDbArc
 50
164.4758890032459
 51
180.0
  0
ARC
  5
3C
100
AcDbEntity
  8
USP-GEO
100
AcDbCircle
 10
1.406250000000036
 20
5.824699999999813
 30
-0.0000000000000007
 40
0.0747000000000001
100
AcDbArc
 50
293.8085530245247
 51
0.0
  0
LINE
  5
3D
100
AcDbEntity
  8
USP-GEO
100
AcDbLine
 10
1.424872794026048
 20
5.749999999999822
 30
-0.0000000000000007
 11
1.406250000000038
 21
5.749999999999822
 31
-0.0000000000000007
210
1.0
220
-0.0000000000000002
230
0.0
  0
ARC
  5
3E
100
AcDbEntity
  8
USP-GEO
100
AcDbCircle
 10
1.466560072215639
 20
5.688014027093492
 30
-0.0000000000000007
 40
0.0747
100
AcDbArc
 50
123.9219210556731
 51
164.475889003245
  0
ARC
  5
3F
100
AcDbEntity
  8
USP-GEO
100
AcDbCircle
 10
1.466560072215639
 20
5.688014027093492
 30
-0.0000000000000007
 40
0.0747000000000001
100
AcDbArc
 50
113.8085530245211
 51
123.9219210556736
  0
ENDBLK
  5
42
100
AcDbEntity
  8
0
100
AcDbBlockEnd
  0
BLOCK
  5
80
100
AcDbEntity
  8
0
100
AcDbBlockBegin
  2
HTW16_S
 70
     0
 10
0.0
 20
0.0
 30
0.0
  3
HTW16_S
  1

  0
LINE
  5
45
100
AcDbEntity
  8
USP-GEO
100
AcDbLine
 10
1.471829477407471
 20
3.037500000000035
 30
0.0
 11
1.471829477407471
 21
3.100000000000035
 31
0.0
  0
LINE
  5
46
100
AcDbEntity
  8
USP-GEO
100
AcDbLine
 10
1.397129477407471
 20
3.100000000000035
 30
0.0
 11
1.397129477407471
 21
3.037500000000035
 31
0.0
  0
LINE
  5
47
100
AcDbEntity
  8
USP-GEO
100
AcDbLine
 10
1.471829477407471
 20
2.900000000000046
 30
0.0
 11
1.471829477407471
 21
0.1767766952966507
 31
0.0
  0
LINE
  5
48
100
AcDbEntity
  8
USP-GEO
100
AcDbLine
 10
1.397129477407471
 20
2.90000000000005
 30
0.0
 11
1.397129477407471
 21
0.1767766952966507
 31
0.0
  0
LINE
  5
49
100
AcDbEntity
  8
USP-GEO
100
AcDbLine
 10
1.471829477407474
 20
0.1767766952966507
 30
0.0
 11
1.471829477407474
 21
0.0
 31
0.0
  0
LINE
  5
4A
100
AcDbEntity
  8
USP-GEO
100
AcDbLine
 10
1.397129477407471
 20
0.1767766952966507
 30
0.0
 11
1.397129477407471
 21
0.0
 31
0.0
  0
LINE
  5
4B
100
AcDbEntity
  8
USP-GEO
100
AcDbLine
 10
1.471829477407474
 20
0.0000000000000142
 30
0.0
 11
1.397129477407471
 21
0.0000000000000142
 31
0.0
  0
LINE
  5
4C
100
AcDbEntity
  8
USP-GEO
100
AcDbLine
 10
1.471829477407474
 20
0.1767766952966507
 30
0.0
 11
1.397129477407471
 21
0.1767766952966507
 31
0.0
  0
LINE
  5
4D
100
AcDbEntity
  8
USP-GEO
100
AcDbLine
 10
1.471829477407471
 20
2.900000000000046
 30
0.0
 11
1.471829477407471
 21
2.962500000000046
 31
0.0
  0
LINE
  5
4E
100
AcDbEntity
  8
USP-GEO
100
AcDbLine
 10
1.397129477407471
 20
2.962500000000046
 30
0.0
 11
1.397129477407471
 21
2.900000000000046
 31
0.0
  0
LINE
  5
4F
100
AcDbEntity
  8
USP-GEO
100
AcDbLine
 10
1.471829477407471
 20
2.900000000000046
 30
0.0
 11
1.397129477407471
 21
2.900000000000046
 31
0.0
  0
LINE
  5
50
100
AcDbEntity
  8
USP-GEO
100
AcDbLine
 10
1.471829477407471
 20
3.037500000000035
 30
0.0
 11
1.471829477407471
 21
2.962500000000046
 31
0.0
  0
LINE
  5
51
100
AcDbEntity
  8
USP-GEO
100
AcDbLine
 10
1.397129477407471
 20
3.037500000000035
 30
0.0
 11
1.397129477407471
 21
2.962500000000046
 31
0.0
  0
TEXT
  5
52
100
AcDbEntity
  8
USP-TXT
100
AcDbText
 10
-3.435312189259195
 20
-1.161546788870573
 30
0.000000000000002
 40
0.5
  1
HTW16 - SIDE VIEW
 72
     1
 11
0.7313544774074732
 21
-1.161546788870573
 31
0.000000000000002
100
AcDbText
  0
ARC
  5
53
100
AcDbEntity
  8
USP-GEO
100
AcDbCircle
 10
1.240879477407471
 20
13.03749999999998
 30
0.0
 40
0.0625
100
AcDbArc
 50
90.00000000000081
 51
180.0
  0
ARC
  5
54
100
AcDbEntity
  8
USP-GEO
100
AcDbCircle
 10
-0.0091205225925251
 20
13.03749999999998
 30
0.0
 40
0.0625
100
AcDbArc
 50
0.0000000000003308
 51
90.00000000000161
  0
LINE
  5
55
100
AcDbEntity
  8
USP-GEO
100
AcDbLine
 10
1.376379477407471
 20
5.824699999999827
 30
0.0
 11
0.0
 21
10.77966611866687
 31
0.0
  0
LINE
  5
56
100
AcDbEntity
  8
USP-GEO
100
AcDbLine
 10
1.471829477407474
 20
5.732091064079996
 30
0.0
 11
1.471829477407474
 21
10.22384177085727
 31
0.0
  0
LINE
  5
57
100
AcDbEntity
  8
USP-HID
100
AcDbLine
 10
1.397129477407471
 20
5.708007023718328
 30
0.0
 11
1.397129477407471
 21
10.25000000000009
 31
0.0
  0
LINE
  5
5A
100
AcDbEntity
  8
USP-GEO
100
AcDbLine
 10
1.471829477407474
 20
5.220333881332896
 30
0.0
 11
1.471829477407474
 21
5.708007023718325
 31
0.0
  0
LINE
  5
5B
100
AcDbEntity
  8
USP-GEO
100
AcDbLine
 10
1.397129477407471
 20
5.708007023718328
 30
0.0
 11
1.397129477407471
 21
5.220333881332896
 31
0.0
  0
LINE
  5
5C
100
AcDbEntity
  8
USP-GEO
100
AcDbLine
 10
1.471829477407471
 20
5.15342291538637
 30
0.0
 11
1.471829477407471
 21
3.100000000000035
 31
0.0
  0
LINE
  5
5D
100
AcDbEntity
  8
USP-GEO
100
AcDbLine
 10
1.397129477407471
 20
5.153422915386373
 30
0.0
 11
1.397129477407471
 21
3.100000000000035
 31
0.0
  0
LINE
  5
5E
100
AcDbEntity
  8
USP-GEO
100
AcDbLine
 10
1.471829477407471
 20
3.100000000000035
 30
0.0
 11
1.397129477407471
 21
3.100000000000035
 31
0.0
  0
LINE
  5
5F
100
AcDbEntity
  8
USP-GEO
100
AcDbLine
 10
1.471829477407474
 20
5.15342291538637
 30
0.0
 11
1.471829477407474
 21
5.220333881332896
 31
0.0
  0
LINE
  5
60
100
AcDbEntity
  8
USP-GEO
100
AcDbLine
 10
1.397129477407471
 20
5.220333881332896
 30
0.0
 11
1.397129477407471
 21
5.153422915386373
 31
0.0
  0
LINE
  5
61
100
AcDbEntity
  8
USP-GEO
100
AcDbLine
 10
1.471829477407474
 20
5.708007023718325
 30
0.0
 11
1.471829477407474
 21
5.732091064079993
 31
0.0
  0
SPLINE
  5
62
100
AcDbEntity
  8
USP-GEO
100
AcDbSpline
210
0.0
220
0.0
230
1.0
 70
     8
 71
     3
 72
    12
 73
     8
 74
     0
 42
0.0000001
 43
0.0000001
 40
0.5526519945379653
 40
0.5526519945379653
 40
0.5526519945379653
 40
0.5526519945379653
 40
0.571095828375629
 40
0.571095828375629
 40
0.5873191321877225
 40
0.5873191321877225
 40
0.5910505309868666
 40
0.5910505309868666
 40
0.5910505309868666
 40
0.5910505309868666
 10
1.471829477407471
 20
5.732091064079996
 30
0.0
 10
1.471829477407407
 20
5.737235023153433
 30
0.0
 10
1.471537683401631
 20
5.741827464545254
 30
0.0
 10
1.469993554411381
 20
5.749103654609251
 30
0.0
 10
1.468765122216783
 20
5.752273647544958
 30
0.0
 10
1.466440735227745
 20
5.755321108614309
 30
0.0
 10
1.465972608414112
 20
5.755856868993193
 30
0.0
 10
1.465472463860635
 20
5.756357013546667
 30
0.0
  0
LINE
  5
63
100
AcDbEntity
  8
USP-GEO
100
AcDbLine
 10
1.397129477407471
 20
5.749999999999827
 30
0.0
 11
1.397129477407471
 21
5.708007023718325
 31
0.0
  0
LINE
  5
64
100
AcDbEntity
  8
USP-GEO
100
AcDbLine
 10
1.395363640311128
 20
5.756357013546667
 30
0.0
 11
1.397129477407471
 21
5.749999999999831
 31
0.0
  0
LINE
  5
65
100
AcDbEntity
  8
USP-GEO
100
AcDbLine
 10
1.376379477407471
 20
5.824699999999827
 30
0.0
 11
1.395363640311128
 21
5.756357013546667
 31
0.0
  0
LINE
  5
66
100
AcDbEntity
  8
USP-GEO
100
AcDbLine
 10
1.397129477407471
 20
5.824699999999827
 30
0.0
 11
1.465472463860631
 21
5.756357013546667
 31
0.0
  0
LINE
  5
67
100
AcDbEntity
  8
USP-GEO
100
AcDbLine
 10
1.249999999999989
 20
10.77966611866701
 30
0.0
 11
1.397129477407471
 21
10.25000000000009
 31
0.0
  0
SPLINE
  5
68
100
AcDbEntity
  8
USP-GEO
100
AcDbSpline
210
0.0
220
0.0
230
1.0
 70
     8
 71
     3
 72
    16
 73
    12
 74
     0
 42
0.0000001
 43
0.0000001
 40
0.0517611895518762
 40
0.0517611895518762
 40
0.0517611895518762
 40
0.0517611895518762
 40
0.055359328037135
 40
0.055359328037135
 40
0.0738124373828467
 40
0.0738124373828467
 40
0.0903937530955429
 40
0.0903937530955429
 40
0.1069750688082391
 40
0.1069750688082391
 40
0.1216686007653551
 40
0.1216686007653551
 40
0.1216686007653551
 40
0.1216686007653551
 10
1.445671248264652
 20
10.25000000000009
 30
0.0
 10
1.446599788451671
 20
10.25000000000009
 30
0.0
 10
1.447507364374867
 20
10.24998758223465
 30
0.0
 10
1.452933484344598
 20
10.24981850316424
 30
0.0
 10
1.456883983447276
 20
10.24928704142186
 30
0.0
 10
1.463045623503482
 20
10.24707722268884
 30
0.0
 10
1.465599913172916
 20
10.24540053395892
 30
0.0
 10
1.469281567061404
 20
10.24061907764794
 30
0.0
 10
1.470427731908561
 20
10.23750210989165
 30
0.0
 10
1.471611173120315
 20
10.23111692181142
 30
0.0
 10
1.471829477407471
 20
10.22766752972977
 30
0.0
 10
1.471829477407471
 20
10.22384177085727
 30
0.0
  0
LINE
  5
69
100
AcDbEntity
  8
USP-GEO
100
AcDbLine
 10
1.445671248264652
 20
10.25000000000009
 30
0.0
 11
1.397129477407471
 21
10.25000000000009
 31
0.0
  0
CIRCLE
  5
6A
100
AcDbEntity
  8
USP-GEO
100
AcDbCircle
 10
0.7408794774074732
 20
12.68750000000001
 30
0.0
 40
0.078
  0
LINE
  5
6B
100
AcDbEntity
  8
USP-GEO
100
AcDbLine
 10
-0.0091205225925251
 20
12.89999999999999
 30
0.0
 11
-0.0091205225925251
 21
10.8465770846134
 31
0.0
  0
ARC
  5
6C
100
AcDbEntity
  8
USP-GEO
100
AcDbCircle
 10
0.2408794774074732
 20
10.8465770846134
 30
0.0
 40
0.25
100
AcDbArc
 50
180.0
 51
195.5241109967572
  0
CIRCLE
  5
6D
100
AcDbEntity
  8
USP-GEO
100
AcDbCircle
 10
0.4908794774074732
 20
11.68750000000001
 30
0.0
 40
0.078
  0
ARC
  5
6E
100
AcDbEntity
  8
USP-GEO
100
AcDbCircle
 10
-0.0091205225925251
 20
12.96249999999999
 30
0.0
 40
0.0625
100
AcDbArc
 50
270.0000000000008
 51
0.0000000000003308
  0
LINE
  5
6F
100
AcDbEntity
  8
USP-GEO
100
AcDbLine
 10
0.053379477407475
 20
12.96249999999999
 30
0.0
 11
0.053379477407475
 21
13.03749999999998
 31
0.0
  0
LINE
  5
70
100
AcDbEntity
  8
USP-GEO
100
AcDbLine
 10
1.240879477407474
 20
12.89999999999999
 30
0.0
 11
1.240879477407474
 21
10.84657708461354
 31
0.0
  0
ARC
  5
71
100
AcDbEntity
  8
USP-GEO
100
AcDbCircle
 10
1.490879477407471
 20
10.84657708461354
 30
0.0
 40
0.25
100
AcDbArc
 50
180.0
 51
195.5241109967549
  0
ARC
  5
72
100
AcDbEntity
  8
USP-GEO
100
AcDbCircle
 10
1.240879477407471
 20
12.96249999999999
 30
0.0
 40
0.0625
100
AcDbArc
 50
180.0
 51
270.0000000000008
  0
LINE
  5
73
100
AcDbEntity
  8
USP-GEO
100
AcDbLine
 10
1.178379477407471
 20
12.96249999999999
 30
0.0
 11
1.178379477407471
 21
13.03749999999998
 31
0.0
  0
LINE
  5
74
100
AcDbEntity
  8
USP-GEO
100
AcDbLine
 10
1.240879477407478
 20
15.82322330470334
 30
0.0
 11
1.240879477407474
 21
13.09999999999997
 31
0.0
  0
CIRCLE
  5
75
100
AcDbEntity
  8
USP-GEO
100
AcDbCircle
 10
0.6158794774074732
 20
15.50000000000001
 30
0.0
 40
0.15625
  0
LINE
  5
76
100
AcDbEntity
  8
USP-GEO
100
AcDbLine
 10
-0.0091205225925251
 20
15.8232233047034
 30
0.0
 11
-0.0091205225925251
 21
13.09999999999997
 31
0.0
  0
CIRCLE
  5
77
100
AcDbEntity
  8
USP-GEO
100
AcDbCircle
 10
0.2408794774074732
 20
13.68750000000001
 30
0.0
 40
0.078
  0
CIRCLE
  5
78
100
AcDbEntity
  8
USP-GEO
100
AcDbCircle
 10
0.3658794774074767
 20
14.68750000000001
 30
0.0
 40
0.078
  0
CIRCLE
  5
79
100
AcDbEntity
  8
USP-GEO
100
AcDbCircle
 10
0.8658794774074767
 20
14.31250000000001
 30
0.0
 40
0.078
  0
CIRCLE
  5
7A
100
AcDbEntity
  8
USP-GEO
100
AcDbCircle
 10
0.9908794774074785
 20
13.31250000000001
 30
0.0
 40
0.078
  0
CIRCLE
  5
7B
100
AcDbEntity
  8
USP-GEO
100
AcDbCircle
 10
0.9908794774074785
 20
15.31250000000001
 30
0.0
 40
0.078
  0
LINE
  5
7C
100
AcDbEntity
  8
USP-GEO
100
AcDbLine
 10
1.064102782110833
 20
16.00000000000001
 30
0.0
 11
0.1676561727041115
 21
16.00000000000001
 31
0.0
  0
LINE
  5
7D
100
AcDbEntity
  8
USP-GEO
100
AcDbLine
 10
-0.0091205225925251
 20
15.8232233047034
 30
0.0
 11
0.1676561727041115
 21
16.00000000000001
 31
0.0
  0
CIRCLE
  5
7E
100
AcDbEntity
  8
USP-GEO
100
AcDbCircle
 10
0.2408794774074732
 20
15.68750000000001
 30
0.0
 40
0.078
  0
LINE
  5
7F
100
AcDbEntity
  8
USP-GEO
100
AcDbLine
 10
1.240879477407506
 20
15.82322330470334
 30
0.0
 11
1.064102782110833
 21
16.00000000000001
 31
0.0
  0
ENDBLK
  5
81
100
AcDbEntity
  8
0
100
AcDbBlockEnd
  0
ENDSEC
  0
SECTION
  2
ENTITIES
  0
INSERT
  5
3
100
AcDbEntity
  8
USP
100
AcDbBlockReference
  2
HTW16_F
 10
3.875563034867845
 20
1.162070507456171
 30
0.000000000000002
  0
INSERT
  5
43
100
AcDbEntity
  8
USP
100
AcDbBlockReference
  2
HTW16_S
 10
13.55345614627827
 20
1.162070495942231
 30
0.0
  0
ENDSEC
  0
SECTION
  2
OBJECTS
  0
DICTIONARY
  5
9D
102
{ACAD_XDICTIONARY
360
9E
102
}
100
AcDbDictionary
  3
ACAD_GROUP
350
9A
  3
ACAD_MLINESTYLE
350
9B
  0
DICTIONARY
  5
8F
100
AcDbDictionary
280
     1
  0
DICTIONARY
  5
91
100
AcDbDictionary
280
     1
  0
DICTIONARY
  5
6
100
AcDbDictionary
280
     1
  0
DICTIONARY
  5
B
100
AcDbDictionary
280
     1
  0
DICTIONARY
  5
A2
100
AcDbDictionary
280
     1
  0
DICTIONARY
  5
82
100
AcDbDictionary
280
     1
  3
ACAD_LAYOUTSELFREF
360
83
  0
DICTIONARY
  5
87
100
AcDbDictionary
280
     1
  3
ACAD_LAYOUTSELFREF
360
88
  0
DICTIONARY
  5
9E
100
AcDbDictionary
280
     1
  3
ACAD_XREC_ROUNDTRIP
360
9F
  0
DICTIONARY
  5
9A
102
{ACAD_REACTORS
330
9D
102
}
100
AcDbDictionary
  0
DICTIONARY
  5
9B
102
{ACAD_XDICTIONARY
360
9C
102
}
102
{ACAD_REACTORS
330
9D
102
}
100
AcDbDictionary
  3
STANDARD
350
A0
  0
XRECORD
  5
83
102
{ACAD_REACTORS
330
82
102
}
100
AcDbXrecord
340
2
  0
XRECORD
  5
88
102
{ACAD_REACTORS
330
87
102
}
100
AcDbXrecord
340
88
  0
XRECORD
  5
9F
102
{ACAD_REACTORS
330
9E
102
}
100
AcDbXrecord
102
EXTNAMES
  1
ACDBVARIABLEDICTIONARY
  2
AcDbVariableDictionary
  0
DICTIONARY
  5
9C
100
AcDbDictionary
280
     1
  0
MLINESTYLE
  5
A0
102
{ACAD_REACTORS
330
9B
102
}
100
AcDbMlineStyle
  2
STANDARD
 70
     0
  3

 62
   256
 51
90.0
 52
90.0
 71
     2
 49
0.5
 62
   256
  6
BYLAYER
 49
-0.5
 62
   256
  6
BYLAYER
  0
ENDSEC
  0
EOF
