  0
SECTION
  2
HEADER
  9
$ACADVER
  1
AC1014
  9
$ACADMAINTVER
 70
     9
  9
$DWGCODEPAGE
  3
ANSI_1252
  9
$INSBASE
 10
0.0
 20
0.0
 30
0.0
  9
$EXTMIN
 10
0.0017418821305384
 20
0.0054498846589865
 30
0.0
  9
$EXTMAX
 10
23.89382341343845
 20
20.15239299171685
 30
0.0
  9
$LIMMIN
 10
0.0
 20
0.0
  9
$LIMMAX
 10
12.0
 20
9.0
  9
$ORTHOMODE
 70
     1
  9
$REGENMODE
 70
     1
  9
$FILLMODE
 70
     1
  9
$QTEXTMODE
 70
     0
  9
$MIRRTEXT
 70
     0
  9
$DRAGMODE
 70
     2
  9
$LTSCALE
 40
1.5
  9
$OSMODE
 70
     0
  9
$ATTMODE
 70
     2
  9
$TEXTSIZE
 40
0.25
  9
$TRACEWID
 40
0.05
  9
$TEXTSTYLE
  7
STANDARD
  9
$CLAYER
  8
USP
  9
$CELTYPE
  6
BYLAYER
  9
$CECOLOR
 62
   256
  9
$CELTSCALE
 40
1.0
  9
$DELOBJ
 70
     1
  9
$DISPSILH
 70
     1
  9
$DIMSCALE
 40
5.0
  9
$DIMASZ
 40
0.09375
  9
$DIMEXO
 40
0.0625
  9
$DIMDLI
 40
0.38
  9
$DIMRND
 40
0.0
  9
$DIMDLE
 40
0.0
  9
$DIMEXE
 40
0.09375
  9
$DIMTP
 40
0.0
  9
$DIMTM
 40
0.0
  9
$DIMTXT
 40
0.09375
  9
$DIMCEN
 40
0.0
  9
$DIMTSZ
 40
0.0
  9
$DIMTOL
 70
     0
  9
$DIMLIM
 70
     0
  9
$DIMTIH
 70
     1
  9
$DIMTOH
 70
     1
  9
$DIMSE1
 70
     0
  9
$DIMSE2
 70
     0
  9
$DIMTAD
 70
     0
  9
$DIMZIN
 70
     0
  9
$DIMBLK
  1

  9
$DIMASO
 70
     1
  9
$DIMSHO
 70
     1
  9
$DIMPOST
  1

  9
$DIMAPOST
  1

  9
$DIMALT
 70
     0
  9
$DIMALTD
 70
     2
  9
$DIMALTF
 40
25.4
  9
$DIMLFAC
 40
1.0
  9
$DIMTOFL
 70
     0
  9
$DIMTVP
 40
0.0
  9
$DIMTIX
 70
     0
  9
$DIMSOXD
 70
     0
  9
$DIMSAH
 70
     0
  9
$DIMBLK1
  1

  9
$DIMBLK2
  1

  9
$DIMSTYLE
  2
FRACTIONAL
  9
$DIMCLRD
 70
     0
  9
$DIMCLRE
 70
     0
  9
$DIMCLRT
 70
     0
  9
$DIMTFAC
 40
1.0
  9
$DIMGAP
 40
0.09
  9
$DIMJUST
 70
     0
  9
$DIMSD1
 70
     0
  9
$DIMSD2
 70
     0
  9
$DIMTOLJ
 70
     1
  9
$DIMTZIN
 70
     0
  9
$DIMALTZ
 70
     0
  9
$DIMALTTZ
 70
     0
  9
$DIMFIT
 70
     3
  9
$DIMUPT
 70
     0
  9
$DIMUNIT
 70
     7
  9
$DIMDEC
 70
     4
  9
$DIMTDEC
 70
     4
  9
$DIMALTU
 70
     2
  9
$DIMALTTD
 70
     2
  9
$DIMTXSTY
  7
STANDARD
  9
$DIMAUNIT
 70
     0
  9
$LUNITS
 70
     5
  9
$LUPREC
 70
     6
  9
$SKETCHINC
 40
0.1
  9
$FILLETRAD
 40
0.375
  9
$AUNITS
 70
     0
  9
$AUPREC
 70
     1
  9
$MENU
  1
CUSTOM
  9
$ELEVATION
 40
0.0
  9
$PELEVATION
 40
0.0
  9
$THICKNESS
 40
0.0
  9
$LIMCHECK
 70
     0
  9
$BLIPMODE
 70
     0
  9
$CHAMFERA
 40
0.0
  9
$CHAMFERB
 40
0.0
  9
$CHAMFERC
 40
0.0
  9
$CHAMFERD
 40
0.0
  9
$SKPOLY
 70
     0
  9
$TDCREATE
 40
2451263.621564698
  9
$TDUPDATE
 40
2452759.745056956
  9
$TDINDWG
 40
6.0364521644
  9
$TDUSRTIMER
 40
6.0364521644
  9
$USRTIMER
 70
     1
  9
$ANGBASE
 50
0.0
  9
$ANGDIR
 70
     0
  9
$PDMODE
 70
     0
  9
$PDSIZE
 40
0.0
  9
$PLINEWID
 40
0.0
  9
$COORDS
 70
     1
  9
$SPLFRAME
 70
     0
  9
$SPLINETYPE
 70
     6
  9
$SPLINESEGS
 70
     8
  9
$ATTDIA
 70
     0
  9
$ATTREQ
 70
     0
  9
$HANDLING
 70
     1
  9
$HANDSEED
  5
E5
  9
$SURFTAB1
 70
     6
  9
$SURFTAB2
 70
     6
  9
$SURFTYPE
 70
     6
  9
$SURFU
 70
     6
  9
$SURFV
 70
     6
  9
$UCSNAME
  2

  9
$UCSORG
 10
0.0
 20
0.0
 30
0.0
  9
$UCSXDIR
 10
1.0
 20
0.0
 30
0.0
  9
$UCSYDIR
 10
0.0
 20
1.0
 30
0.0
  9
$PUCSNAME
  2

  9
$PUCSORG
 10
0.0
 20
0.0
 30
0.0
  9
$PUCSXDIR
 10
1.0
 20
0.0
 30
0.0
  9
$PUCSYDIR
 10
0.0
 20
1.0
 30
0.0
  9
$USERI1
 70
     0
  9
$USERI2
 70
     0
  9
$USERI3
 70
     0
  9
$USERI4
 70
     0
  9
$USERI5
 70
     0
  9
$USERR1
 40
0.0
  9
$USERR2
 40
0.0
  9
$USERR3
 40
0.0
  9
$USERR4
 40
0.0
  9
$USERR5
 40
0.0
  9
$WORLDVIEW
 70
     1
  9
$SHADEDGE
 70
     3
  9
$SHADEDIF
 70
    70
  9
$TILEMODE
 70
     1
  9
$MAXACTVP
 70
    16
  9
$PINSBASE
 10
0.0
 20
0.0
 30
0.0
  9
$PLIMCHECK
 70
     0
  9
$PEXTMIN
 10
1.049999952316284
 20
0.7999999523162842
 30
0.0
  9
$PEXTMAX
 10
9.449999570846555
 20
7.199999570846556
 30
0.0
  9
$PLIMMIN
 10
0.0
 20
0.0
  9
$PLIMMAX
 10
12.0
 20
9.0
  9
$UNITMODE
 70
     0
  9
$VISRETAIN
 70
     0
  9
$PLINEGEN
 70
     0
  9
$PSLTSCALE
 70
     1
  9
$TREEDEPTH
 70
  3020
  9
$PICKSTYLE
 70
     1
  9
$CMLSTYLE
  2
STANDARD
  9
$CMLJUST
 70
     0
  9
$CMLSCALE
 40
1.0
  9
$PROXYGRAPHICS
 70
     1
  9
$MEASUREMENT
 70
     0
  0
ENDSEC
  0
SECTION
  2
CLASSES
  0
CLASS
  1
ACDBDICTIONARYWDFLT
  2
AcDbDictionaryWithDefault
  3
AutoCAD 2000
 90
        0
280
     1
281
     0
  0
CLASS
  1
ACDBPLACEHOLDER
  2
AcDbPlaceHolder
  3
AutoCAD 2000
 90
        0
280
     1
281
     0
  0
CLASS
  1
LAYOUT
  2
AcDbLayout
  3
AutoCAD 2000
 90
        0
280
     1
281
     0
  0
CLASS
  1
DICTIONARYVAR
  2
AcDbDictionaryVar
  3
"AutoCAD"
 90
        0
280
     1
281
     0
  0
CLASS
  1
LONG_TRANSACTION
  2
AcDbLongTransaction
  3
AutoCAD 2000
 90
        0
280
     1
281
     0
  0
CLASS
  1
LWPOLYLINE
  2
AcDbPolyline
  3
"AutoCAD"
 90
        0
280
     1
281
     1
  0
CLASS
  1
HATCH
  2
AcDbHatch
  3
"ACAD_SEDONA"
 90
        0
280
     1
281
     1
  0
CLASS
  1
XRECORD
  2
AcDbXrecord
  3
"<Built In>"
 90
        0
280
     0
281
     0
  0
CLASS
  1
LONG_TRANSACTION
  2
AcDbLongTransaction
  3
AutoCAD 2000
 90
        0
280
     1
281
     0
  0
CLASS
  1
LWPOLYLINE
  2
AcDbPolyline
  3
"AutoCAD"
 90
        0
280
     1
281
     1
  0
CLASS
  1
HATCH
  2
AcDbHatch
  3
"ACAD_SEDONA"
 90
        0
280
     1
281
     1
  0
CLASS
  1
XRECORD
  2
AcDbXrecord
  3
"<Built In>"
 90
        0
280
     0
281
     0
  0
CLASS
  1
LONG_TRANSACTION
  2
AcDbLongTransaction
  3
AutoCAD 2000
 90
        0
280
     1
281
     0
  0
CLASS
  1
LWPOLYLINE
  2
AcDbPolyline
  3
"AutoCAD"
 90
        0
280
     1
281
     1
  0
CLASS
  1
HATCH
  2
AcDbHatch
  3
"ACAD_SEDONA"
 90
        0
280
     1
281
     1
  0
CLASS
  1
XRECORD
  2
AcDbXrecord
  3
"<Built In>"
 90
        0
280
     0
281
     0
  0
CLASS
  1
LONG_TRANSACTION
  2
AcDbLongTransaction
  3
AutoCAD 2000
 90
        0
280
     1
281
     0
  0
CLASS
  1
LWPOLYLINE
  2
AcDbPolyline
  3
"AutoCAD"
 90
        0
280
     1
281
     1
  0
CLASS
  1
HATCH
  2
AcDbHatch
  3
"ACAD_SEDONA"
 90
        0
280
     1
281
     1
  0
CLASS
  1
XRECORD
  2
AcDbXrecord
  3
"<Built In>"
 90
        0
280
     0
281
     0
  0
CLASS
  1
LONG_TRANSACTION
  2
AcDbLongTransaction
  3
AutoCAD 2000
 90
        0
280
     1
281
     0
  0
CLASS
  1
LWPOLYLINE
  2
AcDbPolyline
  3
"AutoCAD"
 90
        0
280
     1
281
     1
  0
CLASS
  1
HATCH
  2
AcDbHatch
  3
"ACAD_SEDONA"
 90
        0
280
     1
281
     1
  0
CLASS
  1
XRECORD
  2
AcDbXrecord
  3
"<Built In>"
 90
        0
280
     0
281
     0
  0
ENDSEC
  0
SECTION
  2
TABLES
  0
TABLE
  2
VPORT
  5
D1
100
AcDbSymbolTable
 70
     1
  0
VPORT
  5
E1
100
AcDbSymbolTableRecord
100
AcDbViewportTableRecord
  2
*ACTIVE
 70
     0
 10
0.0
 20
0.0
 11
1.0
 21
1.0
 12
-7.41599856678348
 22
-42.76212111810596
 13
0.0
 23
0.0
 14
1.0
 24
1.0
 15
0.0
 25
0.0
 16
0.0
 26
0.0
 36
1.0
 17
19.36309421033953
 27
53.25326149505883
 37
10.18021917006588
 40
21.11840610023791
 41
1.457627118644067
 42
50.0
 43
-103.2099474547936
 44
-103.2099474547936
 50
0.0
 51
0.0
 71
     0
 72
   100
 73
     1
 74
     1
 75
     0
 76
     0
 77
     0
 78
     0
  0
ENDTAB
  0
TABLE
  2
LTYPE
  5
CD
100
AcDbSymbolTable
 70
     2
  0
LTYPE
  5
CE
100
AcDbSymbolTableRecord
100
AcDbLinetypeTableRecord
  2
BYBLOCK
 70
     0
  3

 72
    65
 73
     0
 40
0.0
  0
LTYPE
  5
8
100
AcDbSymbolTableRecord
100
AcDbLinetypeTableRecord
  2
BYLAYER
 70
     0
  3

 72
    65
 73
     0
 40
0.0
  0
LTYPE
  5
7
100
AcDbSymbolTableRecord
100
AcDbLinetypeTableRecord
  2
CONTINUOUS
 70
     0
  3
Solid line
 72
    65
 73
     0
 40
0.0
  0
LTYPE
  5
22
100
AcDbSymbolTableRecord
100
AcDbLinetypeTableRecord
  2
HIDDEN
 70
     0
  3
Hidden __ __ __ __ __ __ __ __ __ __ __ __ __ _
 72
    65
 73
     2
 40
0.375
 49
0.25
 74
     0
 49
-0.125
 74
     0
  0
ENDTAB
  0
TABLE
  2
LAYER
  5
CB
100
AcDbSymbolTable
 70
     5
  0
LAYER
  5
3E
102
{ACAD_XDICTIONARY
360
3F
102
}
100
AcDbSymbolTableRecord
100
AcDbLayerTableRecord
  2
0
 70
     0
 62
     7
  6
CONTINUOUS
  0
LAYER
  5
15
102
{ACAD_XDICTIONARY
360
16
102
}
100
AcDbSymbolTableRecord
100
AcDbLayerTableRecord
  2
USP-GEO
 70
     0
 62
     7
  6
CONTINUOUS
  0
LAYER
  5
4
102
{ACAD_XDICTIONARY
360
5
102
}
100
AcDbSymbolTableRecord
100
AcDbLayerTableRecord
  2
USP-TXT
 70
     0
 62
     7
  6
CONTINUOUS
  0
LAYER
  5
20
102
{ACAD_XDICTIONARY
360
21
102
}
100
AcDbSymbolTableRecord
100
AcDbLayerTableRecord
  2
USP-HID
 70
     0
 62
     7
  6
HIDDEN
  0
LAYER
  5
11
100
AcDbSymbolTableRecord
100
AcDbLayerTableRecord
  2
USP
 70
     0
 62
     7
  6
CONTINUOUS
  0
ENDTAB
  0
TABLE
  2
STYLE
  5
CC
100
AcDbSymbolTable
 70
     1
  0
STYLE
  5
9
100
AcDbSymbolTableRecord
100
AcDbTextStyleTableRecord
  2
STANDARD
 70
     0
 40
0.0
 41
1.0
 50
0.0
 71
     0
 42
0.25
  3
txt
  4

  0
ENDTAB
  0
TABLE
  2
VIEW
  5
CF
100
AcDbSymbolTable
 70
     0
  0
ENDTAB
  0
TABLE
  2
UCS
  5
D0
100
AcDbSymbolTable
 70
     0
  0
ENDTAB
  0
TABLE
  2
APPID
  5
D4
100
AcDbSymbolTable
 70
     1
  0
APPID
  5
6
100
AcDbSymbolTableRecord
100
AcDbRegAppTableRecord
  2
ACAD
 70
     0
  0
ENDTAB
  0
TABLE
  2
DIMSTYLE
  5
D5
100
AcDbSymbolTable
 70
     1
  0
DIMSTYLE
105
DC
102
{ACAD_XDICTIONARY
360
DD
102
}
100
AcDbSymbolTableRecord
100
AcDbDimStyleTableRecord
  2
FRACTIONAL
 70
     0
  3

  4

  5

  6

  7

 40
5.0
 41
0.09375
 42
0.0625
 43
0.38
 44
0.09375
 45
0.0
 46
0.0
 47
0.0
 48
0.0
140
0.09375
141
0.0
142
0.0
143
25.4
144
1.0
145
0.0
146
1.0
147
0.09
 71
     0
 72
     0
 73
     1
 74
     1
 75
     0
 76
     0
 77
     0
 78
     0
170
     0
171
     2
172
     0
173
     0
174
     0
175
     0
176
     0
177
     0
178
     0
270
     7
271
     4
272
     4
273
     2
274
     2
340
9
275
     0
280
     0
281
     0
282
     0
283
     1
284
     0
285
     0
286
     0
287
     3
288
     0
  0
ENDTAB
  0
TABLE
  2
BLOCK_RECORD
  5
1
100
AcDbSymbolTable
 70
     3
  0
BLOCK_RECORD
  5
2
102
{ACAD_XDICTIONARY
360
C4
102
}
100
AcDbSymbolTableRecord
100
AcDbBlockTableRecord
  2
*MODEL_SPACE
  0
BLOCK_RECORD
  5
C7
102
{ACAD_XDICTIONARY
360
C8
102
}
100
AcDbSymbolTableRecord
100
AcDbBlockTableRecord
  2
*PAPER_SPACE
  0
BLOCK_RECORD
  5
12
100
AcDbSymbolTableRecord
100
AcDbBlockTableRecord
  2
HTHJ26-18_T
  0
BLOCK_RECORD
  5
42
100
AcDbSymbolTableRecord
100
AcDbBlockTableRecord
  2
HTHJ26-18_F
  0
BLOCK_RECORD
  5
91
100
AcDbSymbolTableRecord
100
AcDbBlockTableRecord
  2
HTHJ26-18_S
  0
ENDTAB
  0
ENDSEC
  0
SECTION
  2
BLOCKS
  0
BLOCK
  5
C5
100
AcDbEntity
  8
0
100
AcDbBlockBegin
  2
*MODEL_SPACE
 70
     0
 10
0.0
 20
0.0
 30
0.0
  3
*MODEL_SPACE
  1

  0
ENDBLK
  5
C6
100
AcDbEntity
  8
0
100
AcDbBlockEnd
  0
BLOCK
  5
C9
100
AcDbEntity
 67
     1
  8
0
100
AcDbBlockBegin
  2
*PAPER_SPACE
 70
     0
 10
0.0
 20
0.0
 30
0.0
  3
*PAPER_SPACE
  1

  0
ENDBLK
  5
CA
100
AcDbEntity
 67
     1
  8
0
100
AcDbBlockEnd
  0
BLOCK
  5
3D
100
AcDbEntity
  8
0
100
AcDbBlockBegin
  2
HTHJ26-18_T
 70
     0
 10
0.0
 20
0.0
 30
0.0
  3
HTHJ26-18_T
  1

  0
TEXT
  5
13
100
AcDbEntity
  8
USP-TXT
100
AcDbText
 10
0.0415833333333424
 20
-1.236619521504707
 30
0.0
 40
0.5
  1
HTHJ26-18 - TOP VIEW
 72
     1
 11
4.958250000000006
 21
-1.236619521504707
 31
0.0
100
AcDbText
  0
LINE
  5
14
100
AcDbEntity
  8
USP-GEO
100
AcDbLine
 10
7.979000000000013
 20
5.062500000000014
 30
0.0
 11
9.916500000000006
 21
5.062500000000014
 31
0.0
  0
LINE
  5
17
100
AcDbEntity
  8
USP-GEO
100
AcDbLine
 10
9.916499999999999
 20
5.114499999999978
 30
0.0
 11
7.927000000000006
 21
5.114499999999978
 31
0.0
  0
LINE
  5
18
100
AcDbEntity
  8
USP-GEO
100
AcDbLine
 10
7.895749999999999
 20
0.0
 30
0.0
 11
2.020750000000006
 21
0.0
 31
0.0
  0
LINE
  5
19
100
AcDbEntity
  8
USP-GEO
100
AcDbLine
 10
1.98950000000002
 20
5.000000000000014
 30
0.0
 11
7.927000000000013
 21
4.999999999999985
 31
0.0
  0
LINE
  5
1A
100
AcDbEntity
  8
USP-GEO
100
AcDbLine
 10
1.98950000000002
 20
2.000000000000014
 30
0.0
 11
1.98950000000002
 21
5.114500000000035
 31
0.0
  0
LINE
  5
1B
100
AcDbEntity
  8
USP-GEO
100
AcDbLine
 10
1.937500000000014
 20
2.0
 30
0.0
 11
1.937500000000014
 21
5.062500000000014
 31
0.0
  0
LINE
  5
1C
100
AcDbEntity
  8
USP-GEO
100
AcDbLine
 10
2.020750000000006
 20
0.0
 30
0.0
 11
2.020750000000006
 21
1.999999999999985
 31
0.0
  0
LINE
  5
1D
100
AcDbEntity
  8
USP-GEO
100
AcDbLine
 10
2.02075000000002
 20
1.999999999999985
 30
0.0
 11
1.98950000000002
 21
1.999999999999985
 31
0.0
  0
LINE
  5
1E
100
AcDbEntity
  8
USP-GEO
100
AcDbLine
 10
1.937500000000014
 20
2.0
 30
0.0
 11
1.98950000000002
 21
2.0
 31
0.0
  0
LINE
  5
1F
100
AcDbEntity
  8
USP-HID
100
AcDbLine
 10
1.937500000000014
 20
2.218999999999994
 30
0.0
 11
1.989499999999992
 21
2.218999999999994
 31
0.0
  0
LINE
  5
23
100
AcDbEntity
  8
USP-HID
100
AcDbLine
 10
1.937500000000014
 20
2.406000000000005
 30
0.0
 11
1.989499999999992
 21
2.406000000000005
 31
0.0
  0
LINE
  5
24
100
AcDbEntity
  8
USP-HID
100
AcDbLine
 10
1.9375
 20
2.969000000000008
 30
0.0
 11
1.98950000000002
 21
2.969000000000008
 31
0.0
  0
LINE
  5
25
100
AcDbEntity
  8
USP-HID
100
AcDbLine
 10
1.9375
 20
3.15600000000002
 30
0.0
 11
1.98950000000002
 21
3.15600000000002
 31
0.0
  0
LINE
  5
26
100
AcDbEntity
  8
USP-GEO
100
AcDbLine
 10
1.937500000000014
 20
5.062500000000014
 30
0.0
 11
0.0
 21
5.062500000000014
 31
0.0
  0
LINE
  5
27
100
AcDbEntity
  8
USP-GEO
100
AcDbLine
 10
1.98950000000002
 20
5.114500000000035
 30
0.0
 11
0.0000000000000284
 21
5.114500000000035
 31
0.0
  0
LINE
  5
28
100
AcDbEntity
  8
USP-GEO
100
AcDbLine
 10
0.0
 20
5.062500000000014
 30
0.0
 11
0.0
 21
5.114500000000006
 31
0.0
  0
LINE
  5
29
100
AcDbEntity
  8
USP-HID
100
AcDbLine
 10
0.406000000000006
 20
5.062500000000014
 30
0.0
 11
0.406000000000006
 21
5.114500000000035
 31
0.0
  0
LINE
  5
2A
100
AcDbEntity
  8
USP-HID
100
AcDbLine
 10
0.2189999999999941
 20
5.062500000000014
 30
0.0
 11
0.2189999999999941
 21
5.114500000000035
 31
0.0
  0
LINE
  5
2B
100
AcDbEntity
  8
USP-HID
100
AcDbLine
 10
1.156000000000005
 20
5.062500000000014
 30
0.0
 11
1.156000000000005
 21
5.114500000000035
 31
0.0
  0
LINE
  5
2C
100
AcDbEntity
  8
USP-HID
100
AcDbLine
 10
0.968999999999994
 20
5.062500000000014
 30
0.0
 11
0.968999999999994
 21
5.114500000000035
 31
0.0
  0
LINE
  5
2D
100
AcDbEntity
  8
USP-HID
100
AcDbLine
 10
1.9375
 20
5.000000000000014
 30
0.0
 11
1.98950000000002
 21
5.000000000000014
 31
0.0
  0
LINE
  5
2E
100
AcDbEntity
  8
USP-GEO
100
AcDbLine
 10
7.927000000000006
 20
5.114499999999978
 30
0.0
 11
7.927000000000006
 21
1.999999999999985
 31
0.0
  0
LINE
  5
2F
100
AcDbEntity
  8
USP-GEO
100
AcDbLine
 10
7.979000000000013
 20
1.999999999999985
 30
0.0
 11
7.979000000000013
 21
5.062500000000014
 31
0.0
  0
LINE
  5
30
100
AcDbEntity
  8
USP-GEO
100
AcDbLine
 10
7.895749999999999
 20
1.999999999999985
 30
0.0
 11
7.895749999999999
 21
0.0
 31
0.0
  0
LINE
  5
31
100
AcDbEntity
  8
USP-GEO
100
AcDbLine
 10
7.927000000000006
 20
1.999999999999985
 30
0.0
 11
7.89575000000002
 21
1.999999999999985
 31
0.0
  0
LINE
  5
32
100
AcDbEntity
  8
USP-GEO
100
AcDbLine
 10
7.979000000000013
 20
1.999999999999985
 30
0.0
 11
7.927000000000006
 21
1.999999999999985
 31
0.0
  0
LINE
  5
33
100
AcDbEntity
  8
USP-HID
100
AcDbLine
 10
7.979000000000013
 20
3.155999999999991
 30
0.0
 11
7.927000000000006
 21
3.155999999999991
 31
0.0
  0
LINE
  5
34
100
AcDbEntity
  8
USP-HID
100
AcDbLine
 10
7.979000000000013
 20
2.968999999999979
 30
0.0
 11
7.927000000000006
 21
2.968999999999979
 31
0.0
  0
LINE
  5
35
100
AcDbEntity
  8
USP-HID
100
AcDbLine
 10
7.978999999999999
 20
2.405999999999991
 30
0.0
 11
7.927000000000006
 21
2.405999999999991
 31
0.0
  0
LINE
  5
36
100
AcDbEntity
  8
USP-HID
100
AcDbLine
 10
7.978999999999999
 20
2.218999999999979
 30
0.0
 11
7.927000000000006
 21
2.218999999999979
 31
0.0
  0
LINE
  5
37
100
AcDbEntity
  8
USP-HID
100
AcDbLine
 10
7.97900000000002
 20
5.000000000000014
 30
0.0
 11
7.927000000000006
 21
5.000000000000014
 31
0.0
  0
LINE
  5
38
100
AcDbEntity
  8
USP-HID
100
AcDbLine
 10
8.947500000000012
 20
5.062500000000014
 30
0.0
 11
8.947500000000012
 21
5.114499999999978
 31
0.0
  0
LINE
  5
39
100
AcDbEntity
  8
USP-HID
100
AcDbLine
 10
8.760500000000014
 20
5.062500000000014
 30
0.0
 11
8.760500000000014
 21
5.114499999999978
 31
0.0
  0
LINE
  5
3A
100
AcDbEntity
  8
USP-HID
100
AcDbLine
 10
9.697500000000005
 20
5.062500000000014
 30
0.0
 11
9.697500000000005
 21
5.114499999999978
 31
0.0
  0
LINE
  5
3B
100
AcDbEntity
  8
USP-HID
100
AcDbLine
 10
9.510500000000007
 20
5.062500000000014
 30
0.0
 11
9.510500000000007
 21
5.114499999999978
 31
0.0
  0
LINE
  5
3C
100
AcDbEntity
  8
USP-GEO
100
AcDbLine
 10
9.916500000000006
 20
5.062500000000014
 30
0.0
 11
9.916500000000006
 21
5.114499999999978
 31
0.0
  0
ENDBLK
  5
40
100
AcDbEntity
  8
0
100
AcDbBlockEnd
  0
BLOCK
  5
8E
100
AcDbEntity
  8
0
100
AcDbBlockBegin
  2
HTHJ26-18_F
 70
     0
 10
0.0
 20
0.0
 30
0.0
  3
HTHJ26-18_F
  1

  0
TEXT
  5
43
100
AcDbEntity
  8
USP-TXT
100
AcDbText
 10
-0.4584166666666434
 20
-2.517313719203087
 30
0.0
 40
0.5
  1
HTHJ26-18 - FRONT VIEW
 72
     1
 11
4.95825000000002
 21
-2.517313719203087
 31
0.0
100
AcDbText
  0
LINE
  5
44
100
AcDbEntity
  8
USP-GEO
100
AcDbLine
 10
7.979000000000013
 20
5.020749999999992
 30
0.0
 11
9.916500000000006
 21
5.020749999999992
 31
0.0
  0
LINE
  5
45
100
AcDbEntity
  8
USP-GEO
100
AcDbLine
 10
7.979000000000013
 20
0.1457499999999925
 30
0.0
 11
9.916500000000006
 21
0.1457499999999925
 31
0.0
  0
CIRCLE
  5
46
100
AcDbEntity
  8
USP-GEO
100
AcDbCircle
 10
8.854000000000013
 20
4.020750000000006
 30
0.0
 40
0.0935
  0
CIRCLE
  5
47
100
AcDbEntity
  8
USP-GEO
100
AcDbCircle
 10
8.854000000000006
 20
1.520750000000006
 30
0.0
 40
0.0935
  0
CIRCLE
  5
48
100
AcDbEntity
  8
USP-GEO
100
AcDbCircle
 10
8.854000000000013
 20
2.520750000000006
 30
0.0
 40
0.0935
  0
CIRCLE
  5
49
100
AcDbEntity
  8
USP-GEO
100
AcDbCircle
 10
8.854000000000013
 20
0.5207500000000067
 30
0.0
 40
0.0935
  0
LINE
  5
4A
100
AcDbEntity
  8
USP-GEO
100
AcDbLine
 10
7.927000000000013
 20
5.020750000000006
 30
0.0
 11
7.927000000000013
 21
0.0519999999999925
 31
0.0
  0
LINE
  5
4B
100
AcDbEntity
  8
USP-GEO
100
AcDbLine
 10
7.978999999999999
 20
0.0
 30
0.0
 11
7.978999999999999
 21
5.020749999999992
 31
0.0
  0
LINE
  5
4C
100
AcDbEntity
  8
USP-GEO
100
AcDbLine
 10
1.989500000000006
 20
0.0519999999999925
 30
0.0
 11
1.989500000000006
 21
5.020749999999992
 31
0.0
  0
LINE
  5
4D
100
AcDbEntity
  8
USP-GEO
100
AcDbLine
 10
1.9375
 20
0.0
 30
0.0
 11
1.9375
 21
5.020749999999978
 31
0.0
  0
LINE
  5
4E
100
AcDbEntity
  8
USP-GEO
100
AcDbLine
 10
0.0000000000000142
 20
0.1457499999999925
 30
0.0
 11
0.0
 21
5.020749999999992
 31
0.0
  0
CIRCLE
  5
4F
100
AcDbEntity
  8
USP-GEO
100
AcDbCircle
 10
0.3125
 20
1.520750000000006
 30
0.0
 40
0.0935
  0
LINE
  5
50
100
AcDbEntity
  8
USP-GEO
100
AcDbLine
 10
7.895749999999999
 20
0.0519999999999783
 30
0.0
 11
2.020750000000006
 21
0.0519999999999783
 31
0.0
  0
LINE
  5
51
100
AcDbEntity
  8
USP-GEO
100
AcDbLine
 10
2.02075000000002
 20
-0.0000000000000142
 30
0.0
 11
7.895750000000006
 21
-0.0000000000000142
 31
0.0
  0
LINE
  5
52
100
AcDbEntity
  8
USP-GEO
100
AcDbLine
 10
0.0
 20
0.1457499999999925
 30
0.0
 11
1.9375
 21
0.1457499999999925
 31
0.0
  0
CIRCLE
  5
53
100
AcDbEntity
  8
USP-GEO
100
AcDbCircle
 10
0.3125
 20
0.5207499999999925
 30
0.0
 40
0.0935
  0
CIRCLE
  5
54
100
AcDbEntity
  8
USP-GEO
100
AcDbCircle
 10
1.0625
 20
1.020749999999992
 30
0.0
 40
0.0935
  0
LINE
  5
55
100
AcDbEntity
  8
USP-GEO
100
AcDbLine
 10
2.02075000000002
 20
-0.0000000000000142
 30
0.0
 11
2.02075000000002
 21
0.0519999999999783
 31
0.0
  0
LINE
  5
56
100
AcDbEntity
  8
USP-GEO
100
AcDbLine
 10
2.02075000000002
 20
0.0519999999999925
 30
0.0
 11
1.98950000000002
 21
0.0519999999999925
 31
0.0
  0
LINE
  5
57
100
AcDbEntity
  8
USP-GEO
100
AcDbLine
 10
1.9375
 20
0.0
 30
0.0
 11
2.020750000000006
 21
0.0
 31
0.0
  0
LINE
  5
58
100
AcDbEntity
  8
USP-HID
100
AcDbLine
 10
1.9375
 20
0.4272499999999866
 30
0.0
 11
1.989500000000006
 21
0.4272499999999866
 31
0.0
  0
LINE
  5
59
100
AcDbEntity
  8
USP-HID
100
AcDbLine
 10
1.937500000000014
 20
0.6142499999999984
 30
0.0
 11
1.98950000000002
 21
0.6142499999999984
 31
0.0
  0
LINE
  5
5A
100
AcDbEntity
  8
USP-HID
100
AcDbLine
 10
1.9375
 20
1.23975
 30
0.0
 11
1.989500000000006
 21
1.23975
 31
0.0
  0
LINE
  5
5B
100
AcDbEntity
  8
USP-HID
100
AcDbLine
 10
1.9375
 20
1.426750000000012
 30
0.0
 11
1.98950000000002
 21
1.426750000000012
 31
0.0
  0
LINE
  5
5C
100
AcDbEntity
  8
USP-HID
100
AcDbLine
 10
1.9375
 20
0.8022499999999865
 30
0.0
 11
1.98950000000002
 21
0.8022499999999865
 31
0.0
  0
LINE
  5
5D
100
AcDbEntity
  8
USP-HID
100
AcDbLine
 10
1.9375
 20
0.9892499999999984
 30
0.0
 11
1.98950000000002
 21
0.9892499999999984
 31
0.0
  0
LINE
  5
5E
100
AcDbEntity
  8
USP-HID
100
AcDbLine
 10
1.9375
 20
0.1457499999999925
 30
0.0
 11
1.98950000000002
 21
0.1457499999999925
 31
0.0
  0
LINE
  5
5F
100
AcDbEntity
  8
USP-GEO
100
AcDbLine
 10
7.895750000000006
 20
-0.0000000000000142
 30
0.0
 11
7.895750000000006
 21
0.0519999999999925
 31
0.0
  0
LINE
  5
60
100
AcDbEntity
  8
USP-GEO
100
AcDbLine
 10
7.927000000000006
 20
0.0520000000000067
 30
0.0
 11
7.89575000000002
 21
0.0520000000000067
 31
0.0
  0
LINE
  5
61
100
AcDbEntity
  8
USP-GEO
100
AcDbLine
 10
7.978999999999999
 20
0.0
 30
0.0
 11
7.895750000000013
 21
0.0
 31
0.0
  0
LINE
  5
62
100
AcDbEntity
  8
USP-HID
100
AcDbLine
 10
7.979000000000013
 20
0.6142499999999984
 30
0.0
 11
7.927000000000013
 21
0.6142499999999984
 31
0.0
  0
LINE
  5
63
100
AcDbEntity
  8
USP-HID
100
AcDbLine
 10
7.979000000000013
 20
0.4272499999999866
 30
0.0
 11
7.92700000000002
 21
0.4272499999999866
 31
0.0
  0
LINE
  5
64
100
AcDbEntity
  8
USP-HID
100
AcDbLine
 10
7.979000000000013
 20
1.426749999999998
 30
0.0
 11
7.927000000000006
 21
1.426749999999998
 31
0.0
  0
LINE
  5
65
100
AcDbEntity
  8
USP-HID
100
AcDbLine
 10
7.979000000000013
 20
1.239749999999986
 30
0.0
 11
7.926999999999992
 21
1.239749999999986
 31
0.0
  0
LINE
  5
66
100
AcDbEntity
  8
USP-HID
100
AcDbLine
 10
7.979000000000006
 20
0.9892499999999841
 30
0.0
 11
7.927000000000013
 21
0.9892499999999841
 31
0.0
  0
LINE
  5
67
100
AcDbEntity
  8
USP-HID
100
AcDbLine
 10
7.979000000000006
 20
0.8022499999999723
 30
0.0
 11
7.92700000000002
 21
0.8022499999999723
 31
0.0
  0
LINE
  5
68
100
AcDbEntity
  8
USP-HID
100
AcDbLine
 10
7.97900000000002
 20
0.1457500000000067
 30
0.0
 11
7.927000000000006
 21
0.1457500000000067
 31
0.0
  0
LINE
  5
69
100
AcDbEntity
  8
USP-GEO
100
AcDbLine
 10
1.937500000000014
 20
5.020750000000006
 30
0.0
 11
0.0
 21
5.020750000000006
 31
0.0
  0
CIRCLE
  5
6A
100
AcDbEntity
  8
USP-GEO
100
AcDbCircle
 10
0.3125
 20
4.020750000000006
 30
0.0
 40
0.0935
  0
CIRCLE
  5
6B
100
AcDbEntity
  8
USP-GEO
100
AcDbCircle
 10
0.3125
 20
2.520750000000006
 30
0.0
 40
0.0935
  0
CIRCLE
  5
6C
100
AcDbEntity
  8
USP-GEO
100
AcDbCircle
 10
1.0625
 20
2.020749999999992
 30
0.0
 40
0.0935
  0
CIRCLE
  5
6D
100
AcDbEntity
  8
USP-GEO
100
AcDbCircle
 10
1.0625
 20
3.520750000000006
 30
0.0
 40
0.0935
  0
LINE
  5
6E
100
AcDbEntity
  8
USP-HID
100
AcDbLine
 10
1.9375
 20
2.052249999999986
 30
0.0
 11
1.989500000000006
 21
2.052249999999986
 31
0.0
  0
LINE
  5
6F
100
AcDbEntity
  8
USP-HID
100
AcDbLine
 10
1.9375
 20
2.239249999999998
 30
0.0
 11
1.98950000000002
 21
2.239249999999998
 31
0.0
  0
LINE
  5
70
100
AcDbEntity
  8
USP-HID
100
AcDbLine
 10
1.9375
 20
3.42725
 30
0.0
 11
1.98950000000002
 21
3.42725
 31
0.0
  0
LINE
  5
71
100
AcDbEntity
  8
USP-HID
100
AcDbLine
 10
1.9375
 20
3.614250000000012
 30
0.0
 11
1.98950000000002
 21
3.614250000000012
 31
0.0
  0
LINE
  5
72
100
AcDbEntity
  8
USP-HID
100
AcDbLine
 10
1.9375
 20
1.614749999999972
 30
0.0
 11
1.989500000000006
 21
1.614749999999972
 31
0.0
  0
LINE
  5
73
100
AcDbEntity
  8
USP-HID
100
AcDbLine
 10
1.9375
 20
1.801749999999984
 30
0.0
 11
1.98950000000002
 21
1.801749999999984
 31
0.0
  0
LINE
  5
74
100
AcDbEntity
  8
USP-HID
100
AcDbLine
 10
1.9375
 20
2.427249999999972
 30
0.0
 11
1.989500000000006
 21
2.427249999999972
 31
0.0
  0
LINE
  5
75
100
AcDbEntity
  8
USP-HID
100
AcDbLine
 10
1.9375
 20
2.614249999999984
 30
0.0
 11
1.98950000000002
 21
2.614249999999984
 31
0.0
  0
LINE
  5
76
100
AcDbEntity
  8
USP-HID
100
AcDbLine
 10
1.9375
 20
3.92725
 30
0.0
 11
1.989500000000006
 21
3.92725
 31
0.0
  0
CIRCLE
  5
77
100
AcDbEntity
  8
USP-GEO
100
AcDbCircle
 10
1.0625
 20
4.520749999999992
 30
0.0
 40
0.0935
  0
LINE
  5
78
100
AcDbEntity
  8
USP-GEO
100
AcDbLine
 10
1.937500000000014
 20
5.020749999999978
 30
0.0
 11
1.98950000000002
 21
5.020749999999978
 31
0.0
  0
LINE
  5
79
100
AcDbEntity
  8
USP-HID
100
AcDbLine
 10
1.937500000000014
 20
4.427249999999986
 30
0.0
 11
1.989499999999992
 21
4.427249999999986
 31
0.0
  0
LINE
  5
7A
100
AcDbEntity
  8
USP-HID
100
AcDbLine
 10
1.937500000000014
 20
4.614249999999998
 30
0.0
 11
1.989499999999992
 21
4.614249999999998
 31
0.0
  0
LINE
  5
7B
100
AcDbEntity
  8
USP-HID
100
AcDbLine
 10
1.9375
 20
4.114250000000012
 30
0.0
 11
1.98950000000002
 21
4.114250000000012
 31
0.0
  0
LINE
  5
7C
100
AcDbEntity
  8
USP-HID
100
AcDbLine
 10
7.97900000000002
 20
2.239249999999998
 30
0.0
 11
7.927000000000013
 21
2.239249999999998
 31
0.0
  0
LINE
  5
7D
100
AcDbEntity
  8
USP-HID
100
AcDbLine
 10
7.979000000000013
 20
2.052249999999986
 30
0.0
 11
7.927000000000006
 21
2.052249999999986
 31
0.0
  0
LINE
  5
7E
100
AcDbEntity
  8
USP-HID
100
AcDbLine
 10
7.979000000000013
 20
3.614249999999984
 30
0.0
 11
7.927000000000006
 21
3.614249999999984
 31
0.0
  0
LINE
  5
7F
100
AcDbEntity
  8
USP-HID
100
AcDbLine
 10
7.979000000000006
 20
3.427249999999972
 30
0.0
 11
7.927000000000013
 21
3.427249999999972
 31
0.0
  0
LINE
  5
80
100
AcDbEntity
  8
USP-HID
100
AcDbLine
 10
7.978999999999999
 20
1.801749999999998
 30
0.0
 11
7.927000000000013
 21
1.801749999999998
 31
0.0
  0
LINE
  5
81
100
AcDbEntity
  8
USP-HID
100
AcDbLine
 10
7.979000000000013
 20
1.614749999999986
 30
0.0
 11
7.92700000000002
 21
1.614749999999986
 31
0.0
  0
LINE
  5
82
100
AcDbEntity
  8
USP-HID
100
AcDbLine
 10
7.979000000000006
 20
2.614249999999998
 30
0.0
 11
7.927000000000013
 21
2.614249999999998
 31
0.0
  0
LINE
  5
83
100
AcDbEntity
  8
USP-HID
100
AcDbLine
 10
7.979000000000006
 20
2.427249999999986
 30
0.0
 11
7.927000000000013
 21
2.427249999999986
 31
0.0
  0
LINE
  5
84
100
AcDbEntity
  8
USP-HID
100
AcDbLine
 10
7.978999999999999
 20
3.927249999999986
 30
0.0
 11
7.927000000000006
 21
3.927249999999986
 31
0.0
  0
LINE
  5
85
100
AcDbEntity
  8
USP-GEO
100
AcDbLine
 10
7.979000000000013
 20
5.020749999999992
 30
0.0
 11
7.927000000000006
 21
5.020749999999992
 31
0.0
  0
LINE
  5
86
100
AcDbEntity
  8
USP-HID
100
AcDbLine
 10
7.979000000000013
 20
4.614249999999998
 30
0.0
 11
7.927000000000013
 21
4.614249999999998
 31
0.0
  0
LINE
  5
87
100
AcDbEntity
  8
USP-HID
100
AcDbLine
 10
7.979000000000013
 20
4.427249999999986
 30
0.0
 11
7.927000000000006
 21
4.427249999999986
 31
0.0
  0
LINE
  5
88
100
AcDbEntity
  8
USP-HID
100
AcDbLine
 10
7.979000000000006
 20
4.114249999999998
 30
0.0
 11
7.927000000000013
 21
4.114249999999998
 31
0.0
  0
LINE
  5
89
100
AcDbEntity
  8
USP-GEO
100
AcDbLine
 10
9.916500000000006
 20
0.1457500000000067
 30
0.0
 11
9.91650000000002
 21
5.020750000000006
 31
0.0
  0
CIRCLE
  5
8A
100
AcDbEntity
  8
USP-GEO
100
AcDbCircle
 10
9.604000000000013
 20
1.020750000000006
 30
0.0
 40
0.0935
  0
CIRCLE
  5
8B
100
AcDbEntity
  8
USP-GEO
100
AcDbCircle
 10
9.604000000000013
 20
3.520749999999992
 30
0.0
 40
0.0935
  0
CIRCLE
  5
8C
100
AcDbEntity
  8
USP-GEO
100
AcDbCircle
 10
9.60400000000002
 20
2.020750000000006
 30
0.0
 40
0.0935
  0
CIRCLE
  5
8D
100
AcDbEntity
  8
USP-GEO
100
AcDbCircle
 10
9.604000000000006
 20
4.520749999999992
 30
0.0
 40
0.0935
  0
ENDBLK
  5
8F
100
AcDbEntity
  8
0
100
AcDbBlockEnd
  0
BLOCK
  5
C2
100
AcDbEntity
  8
0
100
AcDbBlockBegin
  2
HTHJ26-18_S
 70
     0
 10
0.0
 20
0.0
 30
0.0
  3
HTHJ26-18_S
  1

  0
TEXT
  5
92
100
AcDbEntity
  8
USP-TXT
100
AcDbText
 10
-2.526083333333335
 20
-2.517313719203073
 30
0.0
 40
0.5
  1
HTHJ26-18 - SIDE VIEW
 72
     1
 11
2.557249999999996
 21
-2.517313719203073
 31
0.0
100
AcDbText
  0
LINE
  5
93
100
AcDbEntity
  8
USP-GEO
100
AcDbLine
 10
1.999999999999971
 20
0.0000000000000142
 30
0.0
 11
1.999999999999971
 21
5.020750000000006
 31
0.0
  0
LINE
  5
94
100
AcDbEntity
  8
USP-GEO
100
AcDbLine
 10
5.0625
 20
0.1457500000000209
 30
0.0
 11
5.062499999999985
 21
5.02075000000002
 31
0.0
  0
LINE
  5
95
100
AcDbEntity
  8
USP-GEO
100
AcDbLine
 10
5.114499999999992
 20
0.1457500000000209
 30
0.0
 11
5.114499999999978
 21
5.02075000000002
 31
0.0
  0
CIRCLE
  5
96
100
AcDbEntity
  8
USP-GEO
100
AcDbCircle
 10
3.062499999999985
 20
1.333250000000006
 30
0.0
 40
0.0935
  0
CIRCLE
  5
97
100
AcDbEntity
  8
USP-GEO
100
AcDbCircle
 10
3.062499999999992
 20
0.5207500000000067
 30
0.0
 40
0.0935
  0
LINE
  5
98
100
AcDbEntity
  8
USP-GEO
100
AcDbLine
 10
5.0
 20
0.0000000000000142
 30
0.0
 11
2.0
 21
0.0000000000000142
 31
0.0
  0
CIRCLE
  5
99
100
AcDbEntity
  8
USP-HID
100
AcDbCircle
 10
3.062500000000007
 20
0.8957500000000209
 30
0.0
 40
0.0935
  0
LINE
  5
9A
100
AcDbEntity
  8
USP-HID
100
AcDbLine
 10
4.999999999999985
 20
0.0520000000000209
 30
0.0
 11
1.999999999999985
 21
0.0520000000000209
 31
0.0
  0
LINE
  5
9B
100
AcDbEntity
  8
USP-GEO
100
AcDbLine
 10
1.999999999999985
 20
0.0520000000000067
 30
0.0
 11
0.0
 21
0.0520000000000067
 31
0.0
  0
LINE
  5
9C
100
AcDbEntity
  8
USP-GEO
100
AcDbLine
 10
0.0
 20
0.0
 30
0.0
 11
1.999999999999985
 21
0.0
 31
0.0
  0
LINE
  5
9D
100
AcDbEntity
  8
USP-GEO
100
AcDbLine
 10
0.0
 20
0.0
 30
0.0
 11
0.0
 21
0.0520000000000067
 31
0.0
  0
CIRCLE
  5
9E
100
AcDbEntity
  8
USP-GEO
100
AcDbCircle
 10
2.3125
 20
0.8957499999999924
 30
0.0
 40
0.0935
  0
CIRCLE
  5
9F
100
AcDbEntity
  8
USP-HID
100
AcDbCircle
 10
2.312499999999992
 20
0.5207499999999925
 30
0.0
 40
0.0935
  0
CIRCLE
  5
A0
100
AcDbEntity
  8
USP-HID
100
AcDbCircle
 10
2.312500000000007
 20
1.333250000000006
 30
0.0
 40
0.0935
  0
LINE
  5
A1
100
AcDbEntity
  8
USP-GEO
100
AcDbLine
 10
5.0
 20
0.0000000000000142
 30
0.0
 11
5.0
 21
0.1457500000000209
 31
0.0
  0
LINE
  5
A2
100
AcDbEntity
  8
USP-GEO
100
AcDbLine
 10
5.0
 20
0.1457500000000209
 30
0.0
 11
5.062500000000014
 21
0.1457500000000209
 31
0.0
  0
LINE
  5
A3
100
AcDbEntity
  8
USP-GEO
100
AcDbLine
 10
5.0625
 20
0.1457500000000209
 30
0.0
 11
5.114499999999992
 21
0.1457500000000209
 31
0.0
  0
LINE
  5
A4
100
AcDbEntity
  8
USP-HID
100
AcDbLine
 10
5.062500000000014
 20
0.427250000000015
 30
0.0
 11
5.114500000000006
 21
0.427250000000015
 31
0.0
  0
LINE
  5
A5
100
AcDbEntity
  8
USP-HID
100
AcDbLine
 10
5.062500000000014
 20
0.6142500000000269
 30
0.0
 11
5.114500000000006
 21
0.6142500000000269
 31
0.0
  0
LINE
  5
A6
100
AcDbEntity
  8
USP-HID
100
AcDbLine
 10
5.062500000000007
 20
1.427250000000015
 30
0.0
 11
5.114499999999999
 21
1.427250000000015
 31
0.0
  0
LINE
  5
A7
100
AcDbEntity
  8
USP-HID
100
AcDbLine
 10
5.062500000000014
 20
0.927250000000015
 30
0.0
 11
5.114499999999992
 21
0.927250000000015
 31
0.0
  0
LINE
  5
A8
100
AcDbEntity
  8
USP-HID
100
AcDbLine
 10
5.0625
 20
1.114250000000026
 30
0.0
 11
5.114499999999992
 21
1.114250000000026
 31
0.0
  0
CIRCLE
  5
A9
100
AcDbEntity
  8
USP-GEO
100
AcDbCircle
 10
3.062499999999985
 20
4.520750000000006
 30
0.0
 40
0.0935
  0
CIRCLE
  5
AA
100
AcDbEntity
  8
USP-GEO
100
AcDbCircle
 10
3.062499999999985
 20
3.520749999999992
 30
0.0
 40
0.0935
  0
CIRCLE
  5
AB
100
AcDbEntity
  8
USP-GEO
100
AcDbCircle
 10
3.062499999999985
 20
2.145750000000006
 30
0.0
 40
0.0935
  0
LINE
  5
AC
100
AcDbEntity
  8
USP-GEO
100
AcDbLine
 10
1.999999999999978
 20
5.020750000000006
 30
0.0
 11
5.062499999999992
 21
5.02075000000002
 31
0.0
  0
CIRCLE
  5
AD
100
AcDbEntity
  8
USP-HID
100
AcDbCircle
 10
3.062500000000007
 20
1.708250000000006
 30
0.0
 40
0.0935
  0
CIRCLE
  5
AE
100
AcDbEntity
  8
USP-HID
100
AcDbCircle
 10
3.062500000000007
 20
2.520750000000006
 30
0.0
 40
0.0935
  0
CIRCLE
  5
AF
100
AcDbEntity
  8
USP-HID
100
AcDbCircle
 10
3.062499999999992
 20
4.020750000000006
 30
0.0
 40
0.0935
  0
CIRCLE
  5
B0
100
AcDbEntity
  8
USP-GEO
100
AcDbCircle
 10
2.312499999999985
 20
4.020750000000006
 30
0.0
 40
0.0935
  0
CIRCLE
  5
B1
100
AcDbEntity
  8
USP-GEO
100
AcDbCircle
 10
2.3125
 20
2.520750000000006
 30
0.0
 40
0.0935
  0
CIRCLE
  5
B2
100
AcDbEntity
  8
USP-GEO
100
AcDbCircle
 10
2.312499999999992
 20
1.708250000000006
 30
0.0
 40
0.0935
  0
CIRCLE
  5
B3
100
AcDbEntity
  8
USP-HID
100
AcDbCircle
 10
2.312499999999992
 20
2.145750000000006
 30
0.0
 40
0.0935
  0
CIRCLE
  5
B4
100
AcDbEntity
  8
USP-HID
100
AcDbCircle
 10
2.312499999999992
 20
3.52075000000002
 30
0.0
 40
0.0935
  0
CIRCLE
  5
B5
100
AcDbEntity
  8
USP-HID
100
AcDbCircle
 10
2.312499999999992
 20
4.520750000000006
 30
0.0
 40
0.0935
  0
LINE
  5
B6
100
AcDbEntity
  8
USP-HID
100
AcDbLine
 10
5.062500000000014
 20
2.427250000000015
 30
0.0
 11
5.114500000000006
 21
2.427250000000015
 31
0.0
  0
LINE
  5
B7
100
AcDbEntity
  8
USP-HID
100
AcDbLine
 10
5.062500000000014
 20
2.614250000000026
 30
0.0
 11
5.114499999999999
 21
2.614250000000026
 31
0.0
  0
LINE
  5
B8
100
AcDbEntity
  8
USP-HID
100
AcDbLine
 10
5.062500000000014
 20
1.614250000000026
 30
0.0
 11
5.114499999999999
 21
1.614250000000026
 31
0.0
  0
LINE
  5
B9
100
AcDbEntity
  8
USP-HID
100
AcDbLine
 10
5.062500000000014
 20
1.927250000000015
 30
0.0
 11
5.114499999999992
 21
1.927250000000015
 31
0.0
  0
LINE
  5
BA
100
AcDbEntity
  8
USP-HID
100
AcDbLine
 10
5.062500000000007
 20
2.114250000000026
 30
0.0
 11
5.114499999999999
 21
2.114250000000026
 31
0.0
  0
LINE
  5
BB
100
AcDbEntity
  8
USP-HID
100
AcDbLine
 10
5.062500000000014
 20
3.927250000000015
 30
0.0
 11
5.114499999999992
 21
3.927250000000015
 31
0.0
  0
LINE
  5
BC
100
AcDbEntity
  8
USP-HID
100
AcDbLine
 10
5.0625
 20
3.42725
 30
0.0
 11
5.114499999999992
 21
3.42725
 31
0.0
  0
LINE
  5
BD
100
AcDbEntity
  8
USP-HID
100
AcDbLine
 10
5.0625
 20
3.614250000000012
 30
0.0
 11
5.114499999999992
 21
3.614250000000012
 31
0.0
  0
LINE
  5
BE
100
AcDbEntity
  8
USP-GEO
100
AcDbLine
 10
5.0625
 20
5.02075000000002
 30
0.0
 11
5.114499999999992
 21
5.02075000000002
 31
0.0
  0
LINE
  5
BF
100
AcDbEntity
  8
USP-HID
100
AcDbLine
 10
5.062500000000014
 20
4.114250000000026
 30
0.0
 11
5.114499999999999
 21
4.114250000000026
 31
0.0
  0
LINE
  5
C0
100
AcDbEntity
  8
USP-HID
100
AcDbLine
 10
5.0625
 20
4.42725
 30
0.0
 11
5.114499999999992
 21
4.42725
 31
0.0
  0
LINE
  5
C1
100
AcDbEntity
  8
USP-HID
100
AcDbLine
 10
5.0625
 20
4.614250000000012
 30
0.0
 11
5.114499999999992
 21
4.614250000000012
 31
0.0
  0
ENDBLK
  5
C3
100
AcDbEntity
  8
0
100
AcDbBlockEnd
  0
ENDSEC
  0
SECTION
  2
ENTITIES
  0
MTEXT
  5
3
100
AcDbEntity
  8
USP-TXT
100
AcDbMText
 10
114.8507222602497
 20
-86.03403212744677
 30
0.0
 40
0.46875
 41
0.0
 71
     9
 72
     5
  1

1001
ACAD
1000
MTEXTBEGIN
1070
    73
1070
     1
1070
    44
1040
1.0
1070
    74
1070
     0
1000
MTEXTEND
  0
MTEXT
  5
A
100
AcDbEntity
  8
USP-TXT
100
AcDbMText
 10
25.95449266642242
 20
163.5992067463813
 30
0.0
 40
0.65625
 41
0.0
 71
     9
 72
     5
  1

1001
ACAD
1000
MTEXTBEGIN
1070
    73
1070
     1
1070
    44
1040
1.0
1070
    74
1070
     0
1000
MTEXTEND
  0
MTEXT
  5
B
100
AcDbEntity
  8
USP-TXT
100
AcDbMText
 10
133.3927804696136
 20
-39.7256843390262
 30
0.0
 40
0.65625
 41
0.0
 71
     9
 72
     5
  1

1001
ACAD
1000
MTEXTBEGIN
1070
    73
1070
     1
1070
    44
1040
1.0
1070
    74
1070
     0
1000
MTEXTEND
  0
MTEXT
  5
C
100
AcDbEntity
  8
USP-TXT
100
AcDbMText
 10
127.9353229698595
 20
-37.00633039646592
 30
0.0
 40
0.65625
 41
0.0
 71
     9
 72
     5
  1

1001
ACAD
1000
MTEXTBEGIN
1070
    73
1070
     1
1070
    44
1040
1.0
1070
    74
1070
     0
1000
MTEXTEND
  0
MTEXT
  5
D
100
AcDbEntity
  8
USP-TXT
100
AcDbMText
 10
7.805778850697919
 20
-166.434391820464
 30
0.0
 40
0.65625
 41
0.0
 71
     9
 72
     5
  1

1001
ACAD
1000
MTEXTBEGIN
1070
    73
1070
     1
1070
    44
1040
1.0
1070
    74
1070
     0
1000
MTEXTEND
  0
MTEXT
  5
E
100
AcDbEntity
  8
USP-TXT
100
AcDbMText
 10
13.59329354632213
 20
-155.1361810723344
 30
0.0
 40
0.65625
 41
0.0
 71
     9
 72
     5
  1

1001
ACAD
1000
MTEXTBEGIN
1070
    73
1070
     1
1070
    44
1040
1.0
1070
    74
1070
     0
1000
MTEXTEND
  0
MTEXT
  5
F
100
AcDbEntity
  8
USP-TXT
100
AcDbMText
 10
55.50133641961022
 20
-86.85649437078044
 30
0.0
 40
0.46875
 41
0.0
 71
     1
 72
     5
  1

1001
ACAD
1000
MTEXTBEGIN
1070
    73
1070
     1
1070
    44
1040
1.0
1070
    74
1070
     0
1000
MTEXTEND
  0
INSERT
  5
10
100
AcDbEntity
  8
USP
100
AcDbBlockReference
  2
HTHJ26-18_T
 10
0.3977947401765789
 20
15.03789299171681
 30
0.0
  0
INSERT
  5
41
100
AcDbEntity
  8
USP
100
AcDbBlockReference
  2
HTHJ26-18_F
 10
0.4601585487971818
 20
2.522763603862074
 30
0.0
  0
INSERT
  5
90
100
AcDbEntity
  8
USP
100
AcDbBlockReference
  2
HTHJ26-18_S
 10
16.2532400801051
 20
2.52276360386206
 30
0.0
  0
ENDSEC
  0
SECTION
  2
OBJECTS
  0
DICTIONARY
  5
D9
102
{ACAD_XDICTIONARY
360
DA
102
}
100
AcDbDictionary
  3
ACAD_GROUP
350
D7
  3
ACAD_MLINESTYLE
350
D8
1001
ACAD
1000
TREAT_AS_HARD
1070
     0
  0
DICTIONARY
  5
3F
100
AcDbDictionary
280
     1
  0
DICTIONARY
  5
16
100
AcDbDictionary
280
     1
1001
ACAD
1000
TREAT_AS_HARD
1070
     1
  0
DICTIONARY
  5
5
100
AcDbDictionary
280
     1
1001
ACAD
1000
TREAT_AS_HARD
1070
     1
  0
DICTIONARY
  5
21
100
AcDbDictionary
280
     1
1001
ACAD
1000
TREAT_AS_HARD
1070
     1
  0
DICTIONARY
  5
DD
100
AcDbDictionary
280
     1
  0
DICTIONARY
  5
C4
100
AcDbDictionary
280
     1
1001
ACAD
1000
TREAT_AS_HARD
1070
     1
  0
DICTIONARY
  5
C8
100
AcDbDictionary
280
     1
1001
ACAD
1000
TREAT_AS_HARD
1070
     1
  0
DICTIONARY
  5
DA
100
AcDbDictionary
280
     1
  0
DICTIONARY
  5
D7
102
{ACAD_REACTORS
330
D9
102
}
100
AcDbDictionary
1001
ACAD
1000
TREAT_AS_HARD
1070
     0
  0
DICTIONARY
  5
D8
102
{ACAD_REACTORS
330
D9
102
}
100
AcDbDictionary
  3
STANDARD
350
DB
1001
ACAD
1000
TREAT_AS_HARD
1070
     0
  0
MLINESTYLE
  5
DB
102
{ACAD_REACTORS
330
D8
102
}
100
AcDbMlineStyle
  2
STANDARD
 70
     0
  3

 62
     0
 51
90.0
 52
90.0
 71
     2
 49
0.5
 62
   256
  6
BYLAYER
 49
-0.5
 62
   256
  6
BYLAYER
  0
ENDSEC
  0
EOF
