  0
SECTION
  2
HEADER
  9
$ACADVER
  1
AC1014
  9
$ACADMAINTVER
 70
     9
  9
$DWGCODEPAGE
  3
ANSI_1252
  9
$INSBASE
 10
0.0
 20
0.0
 30
0.0
  9
$EXTMIN
 10
0.0013693845207179
 20
0.0006191812414191
 30
0.0
  9
$EXTMAX
 10
15.1339766910572
 20
16.56209333806331
 30
0.0
  9
$LIMMIN
 10
0.0
 20
0.0
  9
$LIMMAX
 10
12.0
 20
9.0
  9
$ORTHOMODE
 70
     1
  9
$REGENMODE
 70
     1
  9
$FILLMODE
 70
     1
  9
$QTEXTMODE
 70
     0
  9
$MIRRTEXT
 70
     0
  9
$DRAGMODE
 70
     2
  9
$LTSCALE
 40
1.5
  9
$OSMODE
 70
     0
  9
$ATTMODE
 70
     1
  9
$TEXTSIZE
 40
0.25
  9
$TRACEWID
 40
0.05
  9
$TEXTSTYLE
  7
STANDARD
  9
$CLAYER
  8
USP
  9
$CELTYPE
  6
BYLAYER
  9
$CECOLOR
 62
   256
  9
$CELTSCALE
 40
1.0
  9
$DELOBJ
 70
     1
  9
$DISPSILH
 70
     1
  9
$DIMSCALE
 40
4.0
  9
$DIMASZ
 40
0.125
  9
$DIMEXO
 40
0.0625
  9
$DIMDLI
 40
0.37890625
  9
$DIMRND
 40
0.0
  9
$DIMDLE
 40
0.0
  9
$DIMEXE
 40
0.09375
  9
$DIMTP
 40
0.0
  9
$DIMTM
 40
0.0
  9
$DIMTXT
 40
0.109375
  9
$DIMCEN
 40
0.0
  9
$DIMTSZ
 40
0.0
  9
$DIMTOL
 70
     0
  9
$DIMLIM
 70
     0
  9
$DIMTIH
 70
     1
  9
$DIMTOH
 70
     1
  9
$DIMSE1
 70
     0
  9
$DIMSE2
 70
     0
  9
$DIMTAD
 70
     0
  9
$DIMZIN
 70
     8
  9
$DIMBLK
  1

  9
$DIMASO
 70
     1
  9
$DIMSHO
 70
     1
  9
$DIMPOST
  1

  9
$DIMAPOST
  1

  9
$DIMALT
 70
     0
  9
$DIMALTD
 70
     2
  9
$DIMALTF
 40
25.4
  9
$DIMLFAC
 40
1.0
  9
$DIMTOFL
 70
     0
  9
$DIMTVP
 40
0.0
  9
$DIMTIX
 70
     0
  9
$DIMSOXD
 70
     0
  9
$DIMSAH
 70
     0
  9
$DIMBLK1
  1

  9
$DIMBLK2
  1

  9
$DIMSTYLE
  2
STANDARD
  9
$DIMCLRD
 70
     0
  9
$DIMCLRE
 70
     0
  9
$DIMCLRT
 70
   256
  9
$DIMTFAC
 40
1.0
  9
$DIMGAP
 40
0.08984375
  9
$DIMJUST
 70
     0
  9
$DIMSD1
 70
     0
  9
$DIMSD2
 70
     0
  9
$DIMTOLJ
 70
     1
  9
$DIMTZIN
 70
     0
  9
$DIMALTZ
 70
     0
  9
$DIMALTTZ
 70
     0
  9
$DIMFIT
 70
     3
  9
$DIMUPT
 70
     1
  9
$DIMUNIT
 70
     7
  9
$DIMDEC
 70
     4
  9
$DIMTDEC
 70
     4
  9
$DIMALTU
 70
     2
  9
$DIMALTTD
 70
     2
  9
$DIMTXSTY
  7
STANDARD
  9
$DIMAUNIT
 70
     0
  9
$LUNITS
 70
     5
  9
$LUPREC
 70
     6
  9
$SKETCHINC
 40
0.1
  9
$FILLETRAD
 40
0.0
  9
$AUNITS
 70
     0
  9
$AUPREC
 70
     1
  9
$MENU
  1
CUSTOM
  9
$ELEVATION
 40
0.0
  9
$PELEVATION
 40
0.0
  9
$THICKNESS
 40
0.0
  9
$LIMCHECK
 70
     0
  9
$BLIPMODE
 70
     0
  9
$CHAMFERA
 40
0.0
  9
$CHAMFERB
 40
0.0
  9
$CHAMFERC
 40
0.0
  9
$CHAMFERD
 40
0.0
  9
$SKPOLY
 70
     0
  9
$TDCREATE
 40
2451263.663231366
  9
$TDUPDATE
 40
2452759.744802870
  9
$TDINDWG
 40
0.5002686574
  9
$TDUSRTIMER
 40
0.5002686574
  9
$USRTIMER
 70
     1
  9
$ANGBASE
 50
0.0
  9
$ANGDIR
 70
     0
  9
$PDMODE
 70
     0
  9
$PDSIZE
 40
0.0
  9
$PLINEWID
 40
0.0
  9
$COORDS
 70
     1
  9
$SPLFRAME
 70
     0
  9
$SPLINETYPE
 70
     6
  9
$SPLINESEGS
 70
     8
  9
$ATTDIA
 70
     0
  9
$ATTREQ
 70
     0
  9
$HANDLING
 70
     1
  9
$HANDSEED
  5
158
  9
$SURFTAB1
 70
     6
  9
$SURFTAB2
 70
     6
  9
$SURFTYPE
 70
     6
  9
$SURFU
 70
     6
  9
$SURFV
 70
     6
  9
$UCSNAME
  2

  9
$UCSORG
 10
0.0
 20
0.0
 30
0.0
  9
$UCSXDIR
 10
1.0
 20
0.0
 30
0.0
  9
$UCSYDIR
 10
0.0
 20
1.0
 30
0.0
  9
$PUCSNAME
  2

  9
$PUCSORG
 10
0.0
 20
0.0
 30
0.0
  9
$PUCSXDIR
 10
1.0
 20
0.0
 30
0.0
  9
$PUCSYDIR
 10
0.0
 20
1.0
 30
0.0
  9
$USERI1
 70
     0
  9
$USERI2
 70
     0
  9
$USERI3
 70
     0
  9
$USERI4
 70
     0
  9
$USERI5
 70
     0
  9
$USERR1
 40
0.0
  9
$USERR2
 40
0.0
  9
$USERR3
 40
0.0
  9
$USERR4
 40
0.0
  9
$USERR5
 40
0.0
  9
$WORLDVIEW
 70
     1
  9
$SHADEDGE
 70
     3
  9
$SHADEDIF
 70
    70
  9
$TILEMODE
 70
     1
  9
$MAXACTVP
 70
    16
  9
$PINSBASE
 10
0.0
 20
0.0
 30
0.0
  9
$PLIMCHECK
 70
     0
  9
$PEXTMIN
 10
1.000000000000000E+20
 20
1.000000000000000E+20
 30
1.000000000000000E+20
  9
$PEXTMAX
 10
-1.000000000000000E+20
 20
-1.000000000000000E+20
 30
-1.000000000000000E+20
  9
$PLIMMIN
 10
0.0
 20
0.0
  9
$PLIMMAX
 10
12.0
 20
9.0
  9
$UNITMODE
 70
     0
  9
$VISRETAIN
 70
     0
  9
$PLINEGEN
 70
     0
  9
$PSLTSCALE
 70
     0
  9
$TREEDEPTH
 70
  3020
  9
$PICKSTYLE
 70
     1
  9
$CMLSTYLE
  2
STANDARD
  9
$CMLJUST
 70
     0
  9
$CMLSCALE
 40
1.0
  9
$PROXYGRAPHICS
 70
     1
  9
$MEASUREMENT
 70
     0
  0
ENDSEC
  0
SECTION
  2
CLASSES
  0
CLASS
  1
ACDBDICTIONARYWDFLT
  2
AcDbDictionaryWithDefault
  3
AutoCAD 2000
 90
        0
280
     1
281
     0
  0
CLASS
  1
ACDBPLACEHOLDER
  2
AcDbPlaceHolder
  3
AutoCAD 2000
 90
        0
280
     1
281
     0
  0
CLASS
  1
LAYOUT
  2
AcDbLayout
  3
AutoCAD 2000
 90
        0
280
     1
281
     0
  0
CLASS
  1
DICTIONARYVAR
  2
AcDbDictionaryVar
  3
"AutoCAD"
 90
        0
280
     1
281
     0
  0
CLASS
  1
LONG_TRANSACTION
  2
AcDbLongTransaction
  3
AutoCAD 2000
 90
        0
280
     1
281
     0
  0
CLASS
  1
LWPOLYLINE
  2
AcDbPolyline
  3
"AutoCAD"
 90
        0
280
     1
281
     1
  0
CLASS
  1
HATCH
  2
AcDbHatch
  3
"ACAD_SEDONA"
 90
        0
280
     1
281
     1
  0
CLASS
  1
XRECORD
  2
AcDbXrecord
  3
"<Built In>"
 90
        0
280
     0
281
     0
  0
CLASS
  1
LONG_TRANSACTION
  2
AcDbLongTransaction
  3
AutoCAD 2000
 90
        0
280
     1
281
     0
  0
CLASS
  1
LWPOLYLINE
  2
AcDbPolyline
  3
"AutoCAD"
 90
        0
280
     1
281
     1
  0
CLASS
  1
HATCH
  2
AcDbHatch
  3
"ACAD_SEDONA"
 90
        0
280
     1
281
     1
  0
CLASS
  1
XRECORD
  2
AcDbXrecord
  3
"<Built In>"
 90
        0
280
     0
281
     0
  0
CLASS
  1
LONG_TRANSACTION
  2
AcDbLongTransaction
  3
AutoCAD 2000
 90
        0
280
     1
281
     0
  0
CLASS
  1
LWPOLYLINE
  2
AcDbPolyline
  3
"AutoCAD"
 90
        0
280
     1
281
     1
  0
CLASS
  1
HATCH
  2
AcDbHatch
  3
"ACAD_SEDONA"
 90
        0
280
     1
281
     1
  0
CLASS
  1
XRECORD
  2
AcDbXrecord
  3
"<Built In>"
 90
        0
280
     0
281
     0
  0
CLASS
  1
LONG_TRANSACTION
  2
AcDbLongTransaction
  3
AutoCAD 2000
 90
        0
280
     1
281
     0
  0
CLASS
  1
LWPOLYLINE
  2
AcDbPolyline
  3
"AutoCAD"
 90
        0
280
     1
281
     1
  0
CLASS
  1
HATCH
  2
AcDbHatch
  3
"ACAD_SEDONA"
 90
        0
280
     1
281
     1
  0
CLASS
  1
XRECORD
  2
AcDbXrecord
  3
"<Built In>"
 90
        0
280
     0
281
     0
  0
ENDSEC
  0
SECTION
  2
TABLES
  0
TABLE
  2
VPORT
  5
145
100
AcDbSymbolTable
 70
     1
  0
VPORT
  5
154
100
AcDbSymbolTableRecord
100
AcDbViewportTableRecord
  2
*ACTIVE
 70
     0
 10
0.0
 20
0.0
 11
1.0
 21
1.0
 12
-15.52839466296558
 22
18.8905186443964
 13
0.0
 23
0.0
 14
1.0
 24
1.0
 15
0.0
 25
0.0
 16
0.0
 26
0.0
 36
1.0
 17
23.09603071721725
 27
-10.27010416511325
 37
-10.44050274849355
 40
17.36013615204792
 41
1.457627118644067
 42
50.0
 43
10.55307667737539
 44
10.55307667737539
 50
0.0
 51
0.0
 71
     0
 72
   100
 73
     1
 74
     1
 75
     0
 76
     0
 77
     0
 78
     0
  0
ENDTAB
  0
TABLE
  2
LTYPE
  5
141
100
AcDbSymbolTable
 70
     2
  0
LTYPE
  5
142
100
AcDbSymbolTableRecord
100
AcDbLinetypeTableRecord
  2
BYBLOCK
 70
     0
  3

 72
    65
 73
     0
 40
0.0
  0
LTYPE
  5
6
100
AcDbSymbolTableRecord
100
AcDbLinetypeTableRecord
  2
BYLAYER
 70
     0
  3

 72
    65
 73
     0
 40
0.0
  0
LTYPE
  5
5
100
AcDbSymbolTableRecord
100
AcDbLinetypeTableRecord
  2
CONTINUOUS
 70
     0
  3
Solid line
 72
    65
 73
     0
 40
0.0
  0
LTYPE
  5
18
100
AcDbSymbolTableRecord
100
AcDbLinetypeTableRecord
  2
HIDDEN
 70
     0
  3
Hidden __ __ __ __ __ __ __ __ __ __ __ __ __ _
 72
    65
 73
     2
 40
0.375
 49
0.25
 74
     0
 49
-0.125
 74
     0
  0
ENDTAB
  0
TABLE
  2
LAYER
  5
13F
100
AcDbSymbolTable
 70
     5
  0
LAYER
  5
53
100
AcDbSymbolTableRecord
100
AcDbLayerTableRecord
  2
0
 70
     0
 62
     7
  6
CONTINUOUS
  0
LAYER
  5
9
102
{ACAD_XDICTIONARY
360
A
102
}
100
AcDbSymbolTableRecord
100
AcDbLayerTableRecord
  2
USP-GEO
 70
     0
 62
     7
  6
CONTINUOUS
  0
LAYER
  5
10
102
{ACAD_XDICTIONARY
360
11
102
}
100
AcDbSymbolTableRecord
100
AcDbLayerTableRecord
  2
USP-TXT
 70
     0
 62
     7
  6
CONTINUOUS
  0
LAYER
  5
16
102
{ACAD_XDICTIONARY
360
17
102
}
100
AcDbSymbolTableRecord
100
AcDbLayerTableRecord
  2
USP-HID
 70
     0
 62
     7
  6
HIDDEN
  0
LAYER
  5
4
100
AcDbSymbolTableRecord
100
AcDbLayerTableRecord
  2
USP
 70
     0
 62
     7
  6
CONTINUOUS
  0
ENDTAB
  0
TABLE
  2
STYLE
  5
140
100
AcDbSymbolTable
 70
     1
  0
STYLE
  5
12
100
AcDbSymbolTableRecord
100
AcDbTextStyleTableRecord
  2
STANDARD
 70
     0
 40
0.0
 41
1.0
 50
0.0
 71
     0
 42
0.25
  3
txt
  4

  0
ENDTAB
  0
TABLE
  2
VIEW
  5
143
100
AcDbSymbolTable
 70
     0
  0
ENDTAB
  0
TABLE
  2
UCS
  5
144
100
AcDbSymbolTable
 70
     0
  0
ENDTAB
  0
TABLE
  2
APPID
  5
148
100
AcDbSymbolTable
 70
     1
  0
APPID
  5
B
100
AcDbSymbolTableRecord
100
AcDbRegAppTableRecord
  2
ACAD
 70
     0
  0
ENDTAB
  0
TABLE
  2
DIMSTYLE
  5
149
100
AcDbSymbolTable
 70
     1
  0
DIMSTYLE
105
150
100
AcDbSymbolTableRecord
100
AcDbDimStyleTableRecord
  2
STANDARD
 70
     0
  3

  4

  5

  6

  7

 40
1.0
 41
0.18
 42
0.0625
 43
0.38
 44
0.18
 45
0.0
 46
0.0
 47
0.0
 48
0.0
140
0.18
141
0.09
142
0.0
143
25.4
144
1.0
145
0.0
146
1.0
147
0.09
 71
     0
 72
     0
 73
     1
 74
     1
 75
     0
 76
     0
 77
     0
 78
     0
170
     0
171
     2
172
     0
173
     0
174
     0
175
     0
176
     0
177
     0
178
     0
270
     2
271
     4
272
     4
273
     2
274
     2
340
12
275
     0
280
     0
281
     0
282
     0
283
     1
284
     0
285
     0
286
     0
287
     3
288
     0
  0
ENDTAB
  0
TABLE
  2
BLOCK_RECORD
  5
1
100
AcDbSymbolTable
 70
     3
  0
BLOCK_RECORD
  5
2
102
{ACAD_XDICTIONARY
360
138
102
}
100
AcDbSymbolTableRecord
100
AcDbBlockTableRecord
  2
*MODEL_SPACE
  0
BLOCK_RECORD
  5
13B
102
{ACAD_XDICTIONARY
360
13C
102
}
100
AcDbSymbolTableRecord
100
AcDbBlockTableRecord
  2
*PAPER_SPACE
  0
BLOCK_RECORD
  5
7
100
AcDbSymbolTableRecord
100
AcDbBlockTableRecord
  2
HHCP2_T
  0
BLOCK_RECORD
  5
56
100
AcDbSymbolTableRecord
100
AcDbBlockTableRecord
  2
HHCP2_F
  0
BLOCK_RECORD
  5
E8
100
AcDbSymbolTableRecord
100
AcDbBlockTableRecord
  2
HHCP2_S
  0
ENDTAB
  0
ENDSEC
  0
SECTION
  2
BLOCKS
  0
BLOCK
  5
139
100
AcDbEntity
  8
0
100
AcDbBlockBegin
  2
*MODEL_SPACE
 70
     0
 10
0.0
 20
0.0
 30
0.0
  3
*MODEL_SPACE
  1

  0
ENDBLK
  5
13A
100
AcDbEntity
  8
0
100
AcDbBlockEnd
  0
BLOCK
  5
13D
100
AcDbEntity
 67
     1
  8
0
100
AcDbBlockBegin
  2
*PAPER_SPACE
 70
     0
 10
0.0
 20
0.0
 30
0.0
  3
*PAPER_SPACE
  1

  0
ENDBLK
  5
13E
100
AcDbEntity
 67
     1
  8
0
100
AcDbBlockEnd
  0
BLOCK
  5
52
100
AcDbEntity
  8
0
100
AcDbBlockBegin
  2
HHCP2_T
 70
     0
 10
0.0
 20
0.0
 30
0.0
  3
HHCP2_T
  1

  0
LINE
  5
8
100
AcDbEntity
  8
USP-GEO
100
AcDbLine
 10
0.2135462479183374
 20
2.389844394971481
 30
0.0
 11
0.0367695526216991
 21
2.566621090268126
 31
0.0
  0
LINE
  5
C
100
AcDbEntity
  8
USP-GEO
100
AcDbLine
 10
0.1767766952966383
 20
2.353074842349782
 30
0.0
 11
0.0
 21
2.529851537646427
 31
0.0
  0
LINE
  5
D
100
AcDbEntity
  8
USP-GEO
100
AcDbLine
 10
4.559424525090854
 20
2.566621090268151
 30
0.0
 11
4.382647829794219
 21
2.389844394971506
 31
0.0
  0
LINE
  5
E
100
AcDbEntity
  8
USP-GEO
100
AcDbLine
 10
4.419417382415925
 20
2.353074842349807
 30
0.0
 11
4.596194077712556
 21
2.529851537646448
 31
0.0
  0
TEXT
  5
F
100
AcDbEntity
  8
USP-TXT
100
AcDbText
 10
0.2980970388562944
 20
-1.2557576737304
 30
0.0
 40
0.25
  1
HHCP2 - TOP VIEW
 72
     1
 11
2.298097038856294
 21
-1.2557576737304
 31
0.0
100
AcDbText
  0
LINE
  5
13
100
AcDbEntity
  8
USP-GEO
100
AcDbLine
 10
1.491403018218274
 20
1.111987624671549
 30
0.0
 11
0.7438763338082382
 21
1.859514309081578
 31
0.0
  0
LINE
  5
14
100
AcDbEntity
  8
USP-GEO
100
AcDbLine
 10
1.439403018218271
 20
1.09044851942815
 30
0.0
 11
0.7071067811865355
 21
1.822744756459879
 31
0.0
  0
LINE
  5
15
100
AcDbEntity
  8
USP-HID
100
AcDbLine
 10
1.007627163190832
 20
1.522224374455589
 30
0.0
 11
1.044396715812531
 21
1.558993927077288
 31
0.0
  0
LINE
  5
19
100
AcDbEntity
  8
USP-GEO
100
AcDbLine
 10
0.7438763338082346
 20
1.859514309081578
 30
0.0
 11
0.2135462479183339
 21
2.389844394971484
 31
0.0
  0
LINE
  5
1A
100
AcDbEntity
  8
USP-GEO
100
AcDbLine
 10
0.1767766952966383
 20
2.353074842349782
 30
0.0
 11
0.7071067811865391
 21
1.822744756459876
 31
0.0
  0
LINE
  5
1B
100
AcDbEntity
  8
USP-HID
100
AcDbLine
 10
0.3535533905932837
 20
2.176298147053151
 30
0.0
 11
0.3903229432149793
 21
2.213067699674846
 31
0.0
  0
LINE
  5
1C
100
AcDbEntity
  8
USP-GEO
100
AcDbLine
 10
0.1767766952966383
 20
2.353074842349782
 30
0.0
 11
0.2135462479183339
 21
2.389844394971481
 31
0.0
  0
LINE
  5
1D
100
AcDbEntity
  8
USP-HID
100
AcDbLine
 10
0.300520382004283
 20
2.229331155642137
 30
0.0
 11
0.3372899346259821
 21
2.266100708263836
 31
0.0
  0
LINE
  5
1E
100
AcDbEntity
  8
USP-HID
100
AcDbLine
 10
0.6540737725975632
 20
1.875777765048862
 30
0.0
 11
0.6908433252192623
 21
1.912547317670561
 31
0.0
  0
LINE
  5
1F
100
AcDbEntity
  8
USP-GEO
100
AcDbLine
 10
0.7071067811865355
 20
1.822744756459879
 30
0.0
 11
0.7438763338082311
 21
1.859514309081578
 31
0.0
  0
LINE
  5
20
100
AcDbEntity
  8
USP-HID
100
AcDbLine
 10
0.7601397897755433
 20
1.769711747870882
 30
0.0
 11
0.7969093423972425
 21
1.806481300492585
 31
0.0
  0
LINE
  5
21
100
AcDbEntity
  8
USP-HID
100
AcDbLine
 10
0.4065863991822632
 20
2.12326513846416
 30
0.0
 11
0.4433559518039623
 21
2.16003469108586
 31
0.0
  0
LINE
  5
22
100
AcDbEntity
  8
USP-GEO
100
AcDbLine
 10
3.852317743904304
 20
1.859514309081593
 30
0.0
 11
3.104791059494282
 21
1.111987624671563
 31
0.0
  0
LINE
  5
23
100
AcDbEntity
  8
USP-GEO
100
AcDbLine
 10
3.156791059494295
 20
1.090448519428178
 30
0.0
 11
3.889087296526
 21
1.822744756459897
 31
0.0
  0
LINE
  5
24
100
AcDbEntity
  8
USP-GEO
100
AcDbLine
 10
2.298097038856298
 20
0.3052936040335474
 30
0.0
 11
1.491403018218282
 21
1.111987624671552
 31
0.0
  0
LINE
  5
25
100
AcDbEntity
  8
USP-GEO
100
AcDbLine
 10
1.439403018218278
 20
0.0
 30
0.0
 11
1.439403018218275
 21
1.09044851942815
 31
0.0
  0
LINE
  5
26
100
AcDbEntity
  8
USP-GEO
100
AcDbLine
 10
1.491403018218274
 20
0.0000000000000036
 30
0.0
 11
1.491403018218271
 21
1.111987624671542
 31
0.0
  0
LINE
  5
27
100
AcDbEntity
  8
USP-GEO
100
AcDbLine
 10
3.104791059494292
 20
1.111987624671556
 30
0.0
 11
2.298097038856294
 21
0.305293604033551
 31
0.0
  0
LINE
  5
28
100
AcDbEntity
  8
USP-GEO
100
AcDbLine
 10
2.298097038856294
 20
0.2317544987901527
 30
0.0
 11
3.104791059494285
 21
1.03844851942815
 31
0.0
  0
LINE
  5
29
100
AcDbEntity
  8
USP-GEO
100
AcDbLine
 10
2.298097038856294
 20
0.2317544987901527
 30
0.0
 11
1.491403018218267
 21
1.038448519428172
 31
0.0
  0
LINE
  5
2A
100
AcDbEntity
  8
USP-GEO
100
AcDbLine
 10
3.104791059494285
 20
1.111987624671559
 30
0.0
 11
3.104791059494289
 21
0.0000000000000036
 31
0.0
  0
LINE
  5
2B
100
AcDbEntity
  8
USP-GEO
100
AcDbLine
 10
3.156791059494285
 20
0.0
 30
0.0
 11
3.156791059494281
 21
1.090448519428175
 31
0.0
  0
LINE
  5
2C
100
AcDbEntity
  8
USP-HID
100
AcDbLine
 10
2.952170811453857
 20
0.8858282713877052
 30
0.0
 11
2.915401258832151
 21
0.9225978240094114
 31
0.0
  0
LINE
  5
2D
100
AcDbEntity
  8
USP-HID
100
AcDbLine
 10
1.644023266258731
 20
0.8858282713876981
 30
0.0
 11
1.68079281888043
 21
0.9225978240093972
 31
0.0
  0
LINE
  5
2E
100
AcDbEntity
  8
USP-GEO
100
AcDbLine
 10
1.439403018218278
 20
0.0
 30
0.0
 11
1.491403018218274
 21
0.0
 31
0.0
  0
LINE
  5
2F
100
AcDbEntity
  8
USP-HID
100
AcDbLine
 10
1.439403018218278
 20
0.2725000000000008
 30
0.0
 11
1.491403018218274
 21
0.2725000000000008
 31
0.0
  0
LINE
  5
30
100
AcDbEntity
  8
USP-HID
100
AcDbLine
 10
1.439403018218278
 20
0.4224999999999995
 30
0.0
 11
1.491403018218274
 21
0.4224999999999995
 31
0.0
  0
LINE
  5
31
100
AcDbEntity
  8
USP-HID
100
AcDbLine
 10
1.439403018218275
 20
0.8225000000000051
 30
0.0
 11
1.491403018218274
 21
0.8225000000000051
 31
0.0
  0
LINE
  5
32
100
AcDbEntity
  8
USP-HID
100
AcDbLine
 10
2.209708691207982
 20
0.3201428464384683
 30
0.0
 11
2.246478243829674
 21
0.3569123990601604
 31
0.0
  0
LINE
  5
33
100
AcDbEntity
  8
USP-GEO
100
AcDbLine
 10
3.156791059494285
 20
0.0
 30
0.0
 11
3.104791059494289
 21
0.0
 31
0.0
  0
LINE
  5
34
100
AcDbEntity
  8
USP-HID
100
AcDbLine
 10
2.386485386504617
 20
0.3201428464384755
 30
0.0
 11
2.349715833882921
 21
0.3569123990601675
 31
0.0
  0
LINE
  5
35
100
AcDbEntity
  8
USP-HID
100
AcDbLine
 10
2.815168872598963
 20
0.7488263325328113
 30
0.0
 11
2.77839931997726
 21
0.7855958851545104
 31
0.0
  0
LINE
  5
36
100
AcDbEntity
  8
USP-HID
100
AcDbLine
 10
2.709102855420983
 20
0.6427603153548312
 30
0.0
 11
2.672333302799277
 21
0.6795298679765338
 31
0.0
  0
LINE
  5
37
100
AcDbEntity
  8
USP-HID
100
AcDbLine
 10
3.156791059494285
 20
0.4224999999999959
 30
0.0
 11
3.104791059494289
 21
0.4224999999999959
 31
0.0
  0
LINE
  5
38
100
AcDbEntity
  8
USP-HID
100
AcDbLine
 10
3.156791059494285
 20
0.2724999999999973
 30
0.0
 11
3.104791059494292
 21
0.2724999999999973
 31
0.0
  0
LINE
  5
39
100
AcDbEntity
  8
USP-HID
100
AcDbLine
 10
3.156791059494285
 20
0.8224999999999944
 30
0.0
 11
3.104791059494285
 21
0.8224999999999944
 31
0.0
  0
LINE
  5
3A
100
AcDbEntity
  8
USP-HID
100
AcDbLine
 10
1.439403018218275
 20
0.9725000000000036
 30
0.0
 11
1.491403018218267
 21
0.9725000000000036
 31
0.0
  0
LINE
  5
3B
100
AcDbEntity
  8
USP-HID
100
AcDbLine
 10
1.467246570962092
 20
1.062604966684336
 30
0.0
 11
1.504016123583792
 21
1.099374519306035
 31
0.0
  0
LINE
  5
3C
100
AcDbEntity
  8
USP-HID
100
AcDbLine
 10
1.361180553784112
 20
1.168670983862316
 30
0.0
 11
1.397950106405811
 21
1.205440536484015
 31
0.0
  0
LINE
  5
3D
100
AcDbEntity
  8
USP-HID
100
AcDbLine
 10
1.537957249080751
 20
0.9918942885656782
 30
0.0
 11
1.574726801702446
 21
1.028663841187377
 31
0.0
  0
LINE
  5
3E
100
AcDbEntity
  8
USP-HID
100
AcDbLine
 10
1.491403018218267
 20
1.038448519428172
 30
0.0
 11
1.439403018218282
 21
1.090448519428157
 31
0.0
  0
LINE
  5
3F
100
AcDbEntity
  8
USP-HID
100
AcDbLine
 10
1.113693180368812
 20
1.416158357277609
 30
0.0
 11
1.150462732990511
 21
1.452927909899312
 31
0.0
  0
LINE
  5
40
100
AcDbEntity
  8
USP-HID
100
AcDbLine
 10
1.082757258691909
 20
1.447094278954519
 30
0.0
 11
1.119526811313601
 21
1.483863831576215
 31
0.0
  0
LINE
  5
41
100
AcDbEntity
  8
USP-HID
100
AcDbLine
 10
3.235013523928479
 20
1.168670983862327
 30
0.0
 11
3.198243971306776
 21
1.205440536484026
 31
0.0
  0
LINE
  5
42
100
AcDbEntity
  8
USP-HID
100
AcDbLine
 10
3.156791059494285
 20
0.972499999999993
 30
0.0
 11
3.104791059494289
 21
0.972499999999993
 31
0.0
  0
LINE
  5
43
100
AcDbEntity
  8
USP-HID
100
AcDbLine
 10
3.128947506750499
 20
1.062604966684347
 30
0.0
 11
3.092177954128796
 21
1.099374519306049
 31
0.0
  0
LINE
  5
44
100
AcDbEntity
  8
USP-HID
100
AcDbLine
 10
3.058236828631834
 20
0.9918942885656854
 30
0.0
 11
3.021467276010135
 21
1.028663841187384
 31
0.0
  0
LINE
  5
45
100
AcDbEntity
  8
USP-HID
100
AcDbLine
 10
3.104791059494285
 20
1.03844851942815
 30
0.0
 11
3.156791059494306
 21
1.090448519428171
 31
0.0
  0
LINE
  5
46
100
AcDbEntity
  8
USP-HID
100
AcDbLine
 10
3.513436819020665
 20
1.447094278954534
 30
0.0
 11
3.476667266398969
 21
1.483863831576229
 31
0.0
  0
LINE
  5
47
100
AcDbEntity
  8
USP-GEO
100
AcDbLine
 10
4.382647829794219
 20
2.389844394971506
 30
0.0
 11
3.852317743904301
 21
1.859514309081593
 31
0.0
  0
LINE
  5
48
100
AcDbEntity
  8
USP-GEO
100
AcDbLine
 10
4.419417382415925
 20
2.353074842349807
 30
0.0
 11
3.889087296526007
 21
1.822744756459893
 31
0.0
  0
LINE
  5
49
100
AcDbEntity
  8
USP-HID
100
AcDbLine
 10
4.189607678530311
 20
2.123265138464171
 30
0.0
 11
4.152838125908608
 21
2.16003469108587
 31
0.0
  0
LINE
  5
4A
100
AcDbEntity
  8
USP-GEO
100
AcDbLine
 10
3.889087296526003
 20
1.822744756459893
 30
0.0
 11
3.852317743904311
 21
1.859514309081585
 31
0.0
  0
LINE
  5
4B
100
AcDbEntity
  8
USP-HID
100
AcDbLine
 10
3.836054287937042
 20
1.769711747870893
 30
0.0
 11
3.799284735315335
 21
1.806481300492595
 31
0.0
  0
LINE
  5
4C
100
AcDbEntity
  8
USP-HID
100
AcDbLine
 10
3.942120305115022
 20
1.875777765048873
 30
0.0
 11
3.905350752493319
 21
1.912547317670576
 31
0.0
  0
LINE
  5
4D
100
AcDbEntity
  8
USP-GEO
100
AcDbLine
 10
4.419417382415925
 20
2.353074842349807
 30
0.0
 11
4.38264782979423
 21
2.389844394971499
 31
0.0
  0
LINE
  5
4E
100
AcDbEntity
  8
USP-HID
100
AcDbLine
 10
4.295673695708291
 20
2.229331155642151
 30
0.0
 11
4.258904143086585
 21
2.266100708263854
 31
0.0
  0
LINE
  5
4F
100
AcDbEntity
  8
USP-HID
100
AcDbLine
 10
4.242640687119301
 20
2.176298147053172
 30
0.0
 11
4.205871134497606
 21
2.213067699674864
 31
0.0
  0
LINE
  5
50
100
AcDbEntity
  8
USP-GEO
100
AcDbLine
 10
0.0
 20
2.529851537646427
 30
0.0
 11
0.036769552621692
 21
2.566621090268119
 31
0.0
  0
LINE
  5
51
100
AcDbEntity
  8
USP-GEO
100
AcDbLine
 10
4.596194077712556
 20
2.529851537646448
 30
0.0
 11
4.559424525090864
 21
2.566621090268141
 31
0.0
  0
ENDBLK
  5
54
100
AcDbEntity
  8
0
100
AcDbBlockEnd
  0
BLOCK
  5
E5
100
AcDbEntity
  8
0
100
AcDbBlockBegin
  2
HHCP2_F
 70
     0
 10
0.0
 20
0.0
 30
0.0
  3
HHCP2_F
  1

  0
LINE
  5
57
100
AcDbEntity
  8
USP-GEO
100
AcDbLine
 10
0.0
 20
0.5624999999999983
 30
0.0
 11
-0.0000000000000107
 21
3.999999999999999
 31
0.0
  0
LINE
  5
58
100
AcDbEntity
  8
USP-GEO
100
AcDbLine
 10
4.596194077712553
 20
0.5625000000000151
 30
0.0
 11
4.596194077712542
 21
4.000000000000012
 31
0.0
  0
LINE
  5
59
100
AcDbEntity
  8
USP-GEO
100
AcDbLine
 10
2.29809703885629
 20
0.0937500000000071
 30
0.0
 11
2.298097038856283
 21
2.906250000000008
 31
0.0
  0
LINE
  5
5A
100
AcDbEntity
  8
USP-HID
100
AcDbLine
 10
4.559424525090854
 20
0.5625000000000142
 30
0.0
 11
4.559424525090843
 21
4.000000000000014
 31
0.0
  0
LINE
  5
5B
100
AcDbEntity
  8
USP-HID
100
AcDbLine
 10
0.0367695526216885
 20
3.999999999999999
 30
0.0
 11
0.0367695526216991
 21
0.5624999999999983
 31
0.0
  0
TEXT
  5
5C
100
AcDbEntity
  8
USP-TXT
100
AcDbText
 10
0.0480970388562914
 20
-1.380116662032051
 30
0.0
 40
0.25
  1
HHCP2 - FRONT VIEW
 72
     1
 11
2.29809703885629
 21
-1.380116662032051
 31
0.0
100
AcDbText
  0
LINE
  5
5D
100
AcDbEntity
  8
USP-GEO
100
AcDbLine
 10
2.209708691207971
 20
0.0000000000000053
 30
0.0
 11
0.7071067811865462
 21
0.0
 31
0.0
  0
ELLIPSE
  5
5E
100
AcDbEntity
  8
USP-GEO
100
AcDbEllipse
 10
1.060660171779812
 20
1.875000000000003
 30
0.0
 11
0.0000000000000002
 21
-0.075
 31
0.0
210
0.0
220
0.0
230
1.0
 40
0.7071067811865503
 41
-0.0000000000000002
 42
6.283185307179586
  0
LINE
  5
5F
100
AcDbEntity
  8
USP-GEO
100
AcDbLine
 10
0.7071067811865462
 20
0.0
 30
0.0
 11
0.7071067811865462
 21
0.0625000000000018
 31
0.0
  0
LINE
  5
60
100
AcDbEntity
  8
USP-HID
100
AcDbLine
 10
0.7438763338082453
 20
0.0625
 30
0.0
 11
0.7438763338082453
 21
0.0000000000000018
 31
0.0
  0
LINE
  5
61
100
AcDbEntity
  8
USP-GEO
100
AcDbLine
 10
0.7071067811865462
 20
0.0625000000000018
 30
0.0
 11
0.3535533905932731
 21
0.0625000000000009
 31
0.0
  0
LINE
  5
62
100
AcDbEntity
  8
USP-HID
100
AcDbLine
 10
0.0367695526217027
 20
0.5624999999999983
 30
0.0
 11
0.3903229432149757
 21
0.0624999999999991
 31
0.0
  0
LINE
  5
63
100
AcDbEntity
  8
USP-GEO
100
AcDbLine
 10
0.3535533905932731
 20
0.0624999999999991
 30
0.0
 11
0.0
 21
0.5624999999999983
 31
0.0
  0
LINE
  5
64
100
AcDbEntity
  8
USP-HID
100
AcDbLine
 10
0.0
 20
0.5624999999999983
 30
0.0
 11
0.036769552621692
 21
0.5624999999999983
 31
0.0
  0
ELLIPSE
  5
65
100
AcDbEntity
  8
USP-GEO
100
AcDbEllipse
 10
0.7438763338082417
 20
0.3750000000000018
 30
0.0
 11
0.0000000000000002
 21
-0.075
 31
0.0
210
0.0
220
0.0
230
1.0
 40
0.7071067811865503
 41
-2.787577598478852
 42
-0.3540150551109478
  0
ELLIPSE
  5
66
100
AcDbEntity
  8
USP-GEO
100
AcDbEllipse
 10
0.7071067811865426
 20
0.3750000000000009
 30
0.0
 11
0.0000000000000002
 21
-0.075
 31
0.0
210
0.0
220
0.0
230
1.0
 40
0.7071067811865503
 41
-0.0000000000000002
 42
6.283185307179586
  0
ELLIPSE
  5
67
100
AcDbEntity
  8
USP-HID
100
AcDbEllipse
 10
0.7438763338082417
 20
0.3750000000000018
 30
0.0
 11
0.0000000000000002
 21
-0.075
 31
0.0
210
0.0
220
0.0
230
1.0
 40
0.7071067811865503
 41
-2.787577598478852
 42
1.570796326794894
  0
LINE
  5
68
100
AcDbEntity
  8
USP-HID
100
AcDbLine
 10
0.7071067811865426
 20
0.3000000000000007
 30
0.0
 11
0.7438763338082417
 21
0.3000000000000007
 31
0.0
  0
ELLIPSE
  5
69
100
AcDbEntity
  8
USP-HID
100
AcDbEllipse
 10
0.7438763338082417
 20
0.3750000000000018
 30
0.0
 11
0.0000000000000002
 21
-0.075
 31
0.0
210
0.0
220
0.0
230
1.0
 40
0.7071067811865503
 41
-0.3540150551109478
 42
1.570796326794894
  0
LINE
  5
6A
100
AcDbEntity
  8
USP-HID
100
AcDbLine
 10
0.7071067811865462
 20
0.0625000000000018
 30
0.0
 11
0.7438763338082417
 21
0.0625000000000018
 31
0.0
  0
LINE
  5
6B
100
AcDbEntity
  8
USP-HID
100
AcDbLine
 10
0.7071067811865426
 20
0.4500000000000011
 30
0.0
 11
0.7438763338082417
 21
0.4500000000000011
 31
0.0
  0
ELLIPSE
  5
6C
100
AcDbEntity
  8
USP-GEO
100
AcDbEllipse
 10
0.3535533905932624
 20
1.875
 30
0.0
 11
0.0000000000000002
 21
-0.075
 31
0.0
210
0.0
220
0.0
230
1.0
 40
0.7071067811865503
 41
-0.0000000000000002
 42
6.283185307179586
  0
LINE
  5
6D
100
AcDbEntity
  8
USP-HID
100
AcDbLine
 10
0.3535533905932624
 20
1.799999999999999
 30
0.0
 11
0.3903229432149615
 21
1.799999999999999
 31
0.0
  0
LINE
  5
6E
100
AcDbEntity
  8
USP-HID
100
AcDbLine
 10
0.3535533905932624
 20
1.95
 30
0.0
 11
0.3903229432149615
 21
1.95
 31
0.0
  0
ELLIPSE
  5
6F
100
AcDbEntity
  8
USP-HID
100
AcDbEllipse
 10
0.3903229432149615
 20
1.875
 30
0.0
 11
0.0000000000000002
 21
-0.075
 31
0.0
210
0.0
220
0.0
230
1.0
 40
0.7071067811865503
 41
-2.787577598478852
 42
1.570796326794894
  0
ELLIPSE
  5
70
100
AcDbEntity
  8
USP-HID
100
AcDbEllipse
 10
0.3903229432149615
 20
1.875
 30
0.0
 11
0.0000000000000002
 21
-0.075
 31
0.0
210
0.0
220
0.0
230
1.0
 40
0.7071067811865503
 41
-0.3540150551109495
 42
1.570796326794894
  0
ELLIPSE
  5
71
100
AcDbEntity
  8
USP-GEO
100
AcDbEllipse
 10
0.3903229432149615
 20
1.875
 30
0.0
 11
0.0000000000000002
 21
-0.075
 31
0.0
210
0.0
220
0.0
230
1.0
 40
0.7071067811865503
 41
-2.787577598478852
 42
-0.3540150551109495
  0
LINE
  5
72
100
AcDbEntity
  8
USP-GEO
100
AcDbLine
 10
2.386485386504606
 20
0.0000000000000089
 30
0.0
 11
3.889087296526014
 21
0.0000000000000133
 31
0.0
  0
LINE
  5
73
100
AcDbEntity
  8
USP-GEO
100
AcDbLine
 10
2.29809703885629
 20
0.0937500000000071
 30
0.0
 11
2.209708691207971
 21
0.0937500000000071
 31
0.0
  0
LINE
  5
74
100
AcDbEntity
  8
USP-GEO
100
AcDbLine
 10
2.246478243829674
 20
0.0000000000000062
 30
0.0
 11
2.246478243829674
 21
0.0937500000000054
 31
0.0
  0
LINE
  5
75
100
AcDbEntity
  8
USP-GEO
100
AcDbLine
 10
2.209708691207971
 20
0.0000000000000053
 30
0.0
 11
2.209708691207971
 21
0.0937500000000062
 31
0.0
  0
LINE
  5
76
100
AcDbEntity
  8
USP-GEO
100
AcDbLine
 10
2.209708691207971
 20
0.0000000000000053
 30
0.0
 11
2.246478243829663
 21
0.0000000000000053
 31
0.0
  0
LINE
  5
77
100
AcDbEntity
  8
USP-GEO
100
AcDbLine
 10
2.349715833882903
 20
0.0937500000000071
 30
0.0
 11
2.349715833882903
 21
0.000000000000008
 31
0.0
  0
LINE
  5
78
100
AcDbEntity
  8
USP-GEO
100
AcDbLine
 10
2.386485386504606
 20
0.0000000000000089
 30
0.0
 11
2.386485386504606
 21
0.0937500000000062
 31
0.0
  0
LINE
  5
79
100
AcDbEntity
  8
USP-GEO
100
AcDbLine
 10
2.386485386504606
 20
0.0000000000000089
 30
0.0
 11
2.34971583388291
 21
0.0000000000000089
 31
0.0
  0
LINE
  5
7A
100
AcDbEntity
  8
USP-GEO
100
AcDbLine
 10
2.29809703885629
 20
0.0937500000000071
 30
0.0
 11
2.386485386504606
 21
0.0937500000000071
 31
0.0
  0
ELLIPSE
  5
7B
100
AcDbEntity
  8
USP-GEO
100
AcDbEllipse
 10
1.450983114994791
 20
1.000000000000003
 30
0.0
 11
0.0000000000000002
 21
-0.075
 31
0.0
210
0.0
220
0.0
230
1.0
 40
0.7071067811865503
 41
-2.787577598478853
 42
-0.3540150551109475
  0
ELLIPSE
  5
7C
100
AcDbEntity
  8
USP-GEO
100
AcDbEllipse
 10
1.414213562373092
 20
1.000000000000003
 30
0.0
 11
0.0000000000000002
 21
-0.075
 31
0.0
210
0.0
220
0.0
230
1.0
 40
0.7071067811865503
 41
-0.0000000000000002
 42
6.283185307179586
  0
LINE
  5
7D
100
AcDbEntity
  8
USP-HID
100
AcDbLine
 10
1.414213562373092
 20
0.9250000000000033
 30
0.0
 11
1.450983114994791
 21
0.9250000000000033
 31
0.0
  0
LINE
  5
7E
100
AcDbEntity
  8
USP-HID
100
AcDbLine
 10
1.414213562373092
 20
1.075000000000003
 30
0.0
 11
1.450983114994791
 21
1.075000000000003
 31
0.0
  0
ELLIPSE
  5
7F
100
AcDbEntity
  8
USP-HID
100
AcDbEllipse
 10
1.450983114994791
 20
1.000000000000003
 30
0.0
 11
0.0000000000000002
 21
-0.075
 31
0.0
210
0.0
220
0.0
230
1.0
 40
0.7071067811865503
 41
-2.787577598478853
 42
1.570796326794894
  0
ELLIPSE
  5
80
100
AcDbEntity
  8
USP-HID
100
AcDbEllipse
 10
1.450983114994791
 20
1.000000000000003
 30
0.0
 11
0.0000000000000002
 21
-0.075
 31
0.0
210
0.0
220
0.0
230
1.0
 40
0.7071067811865503
 41
-0.3540150551109475
 42
1.570796326794894
  0
ELLIPSE
  5
81
100
AcDbEntity
  8
USP-GEO
100
AcDbEllipse
 10
1.097429724401514
 20
1.875000000000002
 30
0.0
 11
0.0000000000000002
 21
-0.075
 31
0.0
210
0.0
220
0.0
230
1.0
 40
0.7071067811865503
 41
-2.787577598478853
 42
-0.3540150551109486
  0
LINE
  5
82
100
AcDbEntity
  8
USP-HID
100
AcDbLine
 10
1.060660171779812
 20
1.800000000000003
 30
0.0
 11
1.097429724401511
 21
1.800000000000003
 31
0.0
  0
LINE
  5
83
100
AcDbEntity
  8
USP-HID
100
AcDbLine
 10
1.060660171779812
 20
1.950000000000003
 30
0.0
 11
1.097429724401511
 21
1.950000000000003
 31
0.0
  0
ELLIPSE
  5
84
100
AcDbEntity
  8
USP-HID
100
AcDbEllipse
 10
1.097429724401514
 20
1.875000000000002
 30
0.0
 11
0.0000000000000002
 21
-0.075
 31
0.0
210
0.0
220
0.0
230
1.0
 40
0.7071067811865503
 41
-2.787577598478853
 42
1.570796326794894
  0
ELLIPSE
  5
85
100
AcDbEntity
  8
USP-HID
100
AcDbEllipse
 10
1.097429724401514
 20
1.875000000000002
 30
0.0
 11
0.0000000000000002
 21
-0.075
 31
0.0
210
0.0
220
0.0
230
1.0
 40
0.7071067811865503
 41
-0.3540150551109486
 42
1.570796326794894
  0
ELLIPSE
  5
86
100
AcDbEntity
  8
USP-GEO
100
AcDbEllipse
 10
3.181980515339478
 20
1.00000000000001
 30
0.0
 11
0.0000000000000002
 21
-0.075
 31
0.0
210
0.0
220
0.0
230
1.0
 40
0.7071067811865446
 41
0.0000000000000038
 42
6.283185307179589
  0
ELLIPSE
  5
87
100
AcDbEntity
  8
USP-GEO
100
AcDbEllipse
 10
3.145210962717772
 20
1.00000000000001
 30
0.0
 11
0.0000000000000002
 21
-0.075
 31
0.0
210
0.0
220
0.0
230
1.0
 40
0.7071067811865446
 41
0.3540150551110222
 42
1.570796326794894
  0
ELLIPSE
  5
88
100
AcDbEntity
  8
USP-GEO
100
AcDbEllipse
 10
3.145210962717772
 20
1.00000000000001
 30
0.0
 11
0.0000000000000002
 21
-0.075
 31
0.0
210
0.0
220
0.0
230
1.0
 40
0.7071067811865446
 41
2.78757759847877
 42
7.853981633974509
  0
LINE
  5
89
100
AcDbEntity
  8
USP-HID
100
AcDbLine
 10
3.181980515339478
 20
1.07500000000001
 30
0.0
 11
3.145210962717779
 21
1.07500000000001
 31
0.0
  0
LINE
  5
8A
100
AcDbEntity
  8
USP-HID
100
AcDbLine
 10
3.181980515339478
 20
0.9250000000000104
 30
0.0
 11
3.145210962717779
 21
0.9250000000000104
 31
0.0
  0
ELLIPSE
  5
8B
100
AcDbEntity
  8
USP-HID
100
AcDbEllipse
 10
3.145210962717772
 20
1.00000000000001
 30
0.0
 11
0.0000000000000002
 21
-0.075
 31
0.0
210
0.0
220
0.0
230
1.0
 40
0.7071067811865446
 41
2.78757759847877
 42
6.63720036229064
  0
ELLIPSE
  5
8C
100
AcDbEntity
  8
USP-GEO
100
AcDbEllipse
 10
2.725366311388256
 20
1.875000000000008
 30
0.0
 11
0.0000000000000002
 21
-0.075
 31
0.0
210
0.0
220
0.0
230
1.0
 40
0.7071067811865446
 41
0.3540150551110127
 42
1.570796326794894
  0
ELLIPSE
  5
8D
100
AcDbEntity
  8
USP-GEO
100
AcDbEllipse
 10
2.725366311388256
 20
1.875000000000008
 30
0.0
 11
0.0000000000000002
 21
-0.075
 31
0.0
210
0.0
220
0.0
230
1.0
 40
0.7071067811865446
 41
2.78757759847877
 42
7.853981633974509
  0
ELLIPSE
  5
8E
100
AcDbEntity
  8
USP-GEO
100
AcDbEllipse
 10
2.762135864009962
 20
1.875000000000007
 30
0.0
 11
0.0000000000000002
 21
-0.075
 31
0.0
210
0.0
220
0.0
230
1.0
 40
0.7071067811865446
 41
0.0000000000000038
 42
6.283185307179589
  0
LINE
  5
8F
100
AcDbEntity
  8
USP-HID
100
AcDbLine
 10
2.762135864009962
 20
1.950000000000008
 30
0.0
 11
2.725366311388256
 21
1.950000000000008
 31
0.0
  0
LINE
  5
90
100
AcDbEntity
  8
USP-HID
100
AcDbLine
 10
2.762135864009962
 20
1.800000000000007
 30
0.0
 11
2.725366311388256
 21
1.800000000000007
 31
0.0
  0
ELLIPSE
  5
91
100
AcDbEntity
  8
USP-HID
100
AcDbEllipse
 10
2.725366311388256
 20
1.875000000000008
 30
0.0
 11
0.0000000000000002
 21
-0.075
 31
0.0
210
0.0
220
0.0
230
1.0
 40
0.7071067811865446
 41
2.78757759847877
 42
6.637200362290631
  0
LINE
  5
92
100
AcDbEntity
  8
USP-GEO
100
AcDbLine
 10
3.889087296526014
 20
0.0000000000000142
 30
0.0
 11
3.889087296526014
 21
0.0625000000000124
 31
0.0
  0
LINE
  5
93
100
AcDbEntity
  8
USP-HID
100
AcDbLine
 10
3.852317743904315
 20
0.0000000000000107
 30
0.0
 11
3.852317743904315
 21
0.0625000000000133
 31
0.0
  0
LINE
  5
94
100
AcDbEntity
  8
USP-GEO
100
AcDbLine
 10
3.889087296526014
 20
0.0625000000000124
 30
0.0
 11
4.242640687119287
 21
0.0625000000000133
 31
0.0
  0
ELLIPSE
  5
95
100
AcDbEntity
  8
USP-GEO
100
AcDbEllipse
 10
3.889087296526021
 20
0.3750000000000133
 30
0.0
 11
0.0000000000000002
 21
-0.075
 31
0.0
210
0.0
220
0.0
230
1.0
 40
0.7071067811865446
 41
0.0000000000000038
 42
6.283185307179589
  0
ELLIPSE
  5
96
100
AcDbEntity
  8
USP-GEO
100
AcDbEllipse
 10
3.852317743904318
 20
0.3750000000000142
 30
0.0
 11
0.0000000000000002
 21
-0.075
 31
0.0
210
0.0
220
0.0
230
1.0
 40
0.7071067811865446
 41
2.787577598478842
 42
7.853981633974508
  0
ELLIPSE
  5
97
100
AcDbEntity
  8
USP-HID
100
AcDbEllipse
 10
3.852317743904318
 20
0.3750000000000142
 30
0.0
 11
0.0000000000000002
 21
-0.075
 31
0.0
210
0.0
220
0.0
230
1.0
 40
0.7071067811865446
 41
2.787577598478842
 42
6.637200362290568
  0
LINE
  5
98
100
AcDbEntity
  8
USP-HID
100
AcDbLine
 10
3.889087296526021
 20
0.3000000000000131
 30
0.0
 11
3.852317743904318
 21
0.3000000000000131
 31
0.0
  0
LINE
  5
99
100
AcDbEntity
  8
USP-HID
100
AcDbLine
 10
3.889087296526014
 20
0.0625000000000124
 30
0.0
 11
3.852317743904322
 21
0.0625000000000124
 31
0.0
  0
ELLIPSE
  5
9A
100
AcDbEntity
  8
USP-GEO
100
AcDbEllipse
 10
3.852317743904318
 20
0.3750000000000142
 30
0.0
 11
0.0000000000000002
 21
-0.075
 31
0.0
210
0.0
220
0.0
230
1.0
 40
0.7071067811865446
 41
0.3540150551109506
 42
1.570796326794894
  0
LINE
  5
9B
100
AcDbEntity
  8
USP-HID
100
AcDbLine
 10
3.889087296526021
 20
0.4500000000000135
 30
0.0
 11
3.852317743904318
 21
0.4500000000000135
 31
0.0
  0
LINE
  5
9C
100
AcDbEntity
  8
USP-GEO
100
AcDbLine
 10
4.24264068711929
 20
0.0625000000000124
 30
0.0
 11
4.59619407771256
 21
0.5625000000000107
 31
0.0
  0
LINE
  5
9D
100
AcDbEntity
  8
USP-HID
100
AcDbLine
 10
4.205871134497588
 20
0.0625000000000124
 30
0.0
 11
4.559424525090857
 21
0.5625000000000134
 31
0.0
  0
LINE
  5
9E
100
AcDbEntity
  8
USP-HID
100
AcDbLine
 10
4.596194077712553
 20
0.5625000000000151
 30
0.0
 11
4.559424525090864
 21
0.5625000000000151
 31
0.0
  0
ELLIPSE
  5
9F
100
AcDbEntity
  8
USP-GEO
100
AcDbEllipse
 10
4.205871134497588
 20
1.875000000000012
 30
0.0
 11
0.0000000000000002
 21
-0.075
 31
0.0
210
0.0
220
0.0
230
1.0
 40
0.7071067811865446
 41
2.787577598478841
 42
7.853981633974509
  0
ELLIPSE
  5
A0
100
AcDbEntity
  8
USP-HID
100
AcDbEllipse
 10
4.205871134497588
 20
1.875000000000012
 30
0.0
 11
0.0000000000000002
 21
-0.075
 31
0.0
210
0.0
220
0.0
230
1.0
 40
0.7071067811865446
 41
2.787577598478841
 42
6.63720036229056
  0
ELLIPSE
  5
A1
100
AcDbEntity
  8
USP-GEO
100
AcDbEllipse
 10
4.205871134497588
 20
1.875000000000012
 30
0.0
 11
0.0000000000000002
 21
-0.075
 31
0.0
210
0.0
220
0.0
230
1.0
 40
0.7071067811865446
 41
0.3540150551109418
 42
1.570796326794894
  0
ELLIPSE
  5
A2
100
AcDbEntity
  8
USP-GEO
100
AcDbEllipse
 10
4.24264068711929
 20
1.875000000000013
 30
0.0
 11
0.0000000000000002
 21
-0.075
 31
0.0
210
0.0
220
0.0
230
1.0
 40
0.7071067811865446
 41
-0.0000000000000045
 42
6.283185307179581
  0
LINE
  5
A3
100
AcDbEntity
  8
USP-HID
100
AcDbLine
 10
4.24264068711929
 20
1.950000000000013
 30
0.0
 11
4.205871134497588
 21
1.950000000000013
 31
0.0
  0
LINE
  5
A4
100
AcDbEntity
  8
USP-HID
100
AcDbLine
 10
4.24264068711929
 20
1.800000000000013
 30
0.0
 11
4.205871134497588
 21
1.800000000000013
 31
0.0
  0
LINE
  5
A5
100
AcDbEntity
  8
USP-GEO
100
AcDbLine
 10
1.439403018218261
 20
6.630000000000006
 30
0.0
 11
0.7071067811865249
 21
6.630000000000004
 31
0.0
  0
LINE
  5
A6
100
AcDbEntity
  8
USP-GEO
100
AcDbLine
 10
0.1767766952966276
 20
3.999999999999999
 30
0.0
 11
0.7071067811865284
 21
6.55
 31
0.0
  0
LINE
  5
A7
100
AcDbEntity
  8
USP-HID
100
AcDbLine
 10
0.743876333808224
 20
6.550000000000004
 30
0.0
 11
0.2135462479183232
 21
4.000000000000001
 31
0.0
  0
LINE
  5
A8
100
AcDbEntity
  8
USP-GEO
100
AcDbLine
 10
0.1767766952966276
 20
3.999999999999999
 30
0.0
 11
-0.0000000000000107
 21
3.999999999999999
 31
0.0
  0
LINE
  5
A9
100
AcDbEntity
  8
USP-HID
100
AcDbLine
 10
0.1767766952966276
 20
3.999999999999999
 30
0.0
 11
0.2135462479183232
 21
3.999999999999999
 31
0.0
  0
LINE
  5
AA
100
AcDbEntity
  8
USP-GEO
100
AcDbLine
 10
0.7071067811865249
 20
6.55
 30
0.0
 11
0.7071067811865249
 21
6.630000000000002
 31
0.0
  0
LINE
  5
AB
100
AcDbEntity
  8
USP-HID
100
AcDbLine
 10
0.7071067811865249
 20
6.55
 30
0.0
 11
0.743876333808224
 21
6.55
 31
0.0
  0
LINE
  5
AC
100
AcDbEntity
  8
USP-HID
100
AcDbLine
 10
0.743876333808224
 20
6.630000000000002
 30
0.0
 11
0.743876333808224
 21
6.550000000000002
 31
0.0
  0
LINE
  5
AD
100
AcDbEntity
  8
USP-GEO
100
AcDbLine
 10
3.104791059494278
 20
6.630000000000014
 30
0.0
 11
3.104791059494289
 21
3.031250000000011
 31
0.0
  0
LINE
  5
AE
100
AcDbEntity
  8
USP-GEO
100
AcDbLine
 10
3.156791059494288
 20
3.031250000000011
 30
0.0
 11
3.156791059494278
 21
6.630000000000016
 31
0.0
  0
LINE
  5
AF
100
AcDbEntity
  8
USP-GEO
100
AcDbLine
 10
1.491403018218274
 20
3.031250000000011
 30
0.0
 11
1.491403018218264
 21
6.630000000000014
 31
0.0
  0
LINE
  5
B0
100
AcDbEntity
  8
USP-GEO
100
AcDbLine
 10
1.439403018218268
 20
6.630000000000014
 30
0.0
 11
1.439403018218278
 21
3.031250000000011
 31
0.0
  0
LINE
  5
B1
100
AcDbEntity
  8
USP-GEO
100
AcDbLine
 10
4.419417382415915
 20
4.00000000000001
 30
0.0
 11
3.889087296525996
 21
6.550000000000013
 31
0.0
  0
LINE
  5
B2
100
AcDbEntity
  8
USP-HID
100
AcDbLine
 10
4.382647829794208
 20
4.00000000000001
 30
0.0
 11
3.85231774390429
 21
6.550000000000011
 31
0.0
  0
LINE
  5
B3
100
AcDbEntity
  8
USP-GEO
100
AcDbLine
 10
2.298097038856283
 20
2.906250000000008
 30
0.0
 11
1.082757258691902
 21
2.906250000000004
 31
0.0
  0
ELLIPSE
  5
B4
100
AcDbEntity
  8
USP-GEO
100
AcDbEllipse
 10
1.59099025766973
 20
2.500000000000005
 30
0.0
 11
0.0000000000000002
 21
-0.075
 31
0.0
210
0.0
220
0.0
230
1.0
 40
0.7071067811865503
 41
-0.0000000000000002
 42
6.283185307179586
  0
ELLIPSE
  5
B5
100
AcDbEntity
  8
USP-HID
100
AcDbEllipse
 10
1.627759810291426
 20
2.500000000000005
 30
0.0
 11
0.0000000000000002
 21
-0.075
 31
0.0
210
0.0
220
0.0
230
1.0
 40
0.7071067811865503
 41
-2.787577598478859
 42
1.570796326794894
  0
ELLIPSE
  5
B6
100
AcDbEntity
  8
USP-HID
100
AcDbEllipse
 10
1.627759810291426
 20
2.500000000000005
 30
0.0
 11
0.0000000000000002
 21
-0.075
 31
0.0
210
0.0
220
0.0
230
1.0
 40
0.7071067811865503
 41
-0.3540150551109447
 42
1.570796326794894
  0
ELLIPSE
  5
B7
100
AcDbEntity
  8
USP-GEO
100
AcDbEllipse
 10
1.627759810291426
 20
2.500000000000005
 30
0.0
 11
0.0000000000000002
 21
-0.075
 31
0.0
210
0.0
220
0.0
230
1.0
 40
0.7071067811865503
 41
-2.787577598478859
 42
-0.3540150551109447
  0
LINE
  5
B8
100
AcDbEntity
  8
USP-HID
100
AcDbLine
 10
1.59099025766973
 20
2.425000000000005
 30
0.0
 11
1.627759810291426
 21
2.425000000000005
 31
0.0
  0
LINE
  5
B9
100
AcDbEntity
  8
USP-HID
100
AcDbLine
 10
1.59099025766973
 20
2.575000000000005
 30
0.0
 11
1.627759810291426
 21
2.575000000000005
 31
0.0
  0
LINE
  5
BA
100
AcDbEntity
  8
USP-GEO
100
AcDbLine
 10
1.439403018218271
 20
3.031250000000008
 30
0.0
 11
1.082757258691898
 21
3.031250000000001
 31
0.0
  0
LINE
  5
BB
100
AcDbEntity
  8
USP-GEO
100
AcDbLine
 10
1.119526811313594
 20
2.906249999999999
 30
0.0
 11
1.119526811313594
 21
3.031249999999999
 31
0.0
  0
LINE
  5
BC
100
AcDbEntity
  8
USP-GEO
100
AcDbLine
 10
1.082757258691898
 20
2.906249999999999
 30
0.0
 11
1.082757258691898
 21
3.031250000000001
 31
0.0
  0
LINE
  5
BD
100
AcDbEntity
  8
USP-GEO
100
AcDbLine
 10
1.439403018218278
 20
3.031250000000011
 30
0.0
 11
1.491403018218271
 21
3.031250000000011
 31
0.0
  0
LINE
  5
BE
100
AcDbEntity
  8
USP-GEO
100
AcDbLine
 10
2.298097038856283
 20
2.906250000000008
 30
0.0
 11
3.513436819020654
 21
2.906250000000008
 31
0.0
  0
ELLIPSE
  5
BF
100
AcDbEntity
  8
USP-GEO
100
AcDbEllipse
 10
2.968434267421134
 20
2.500000000000009
 30
0.0
 11
0.0000000000000002
 21
-0.075
 31
0.0
210
0.0
220
0.0
230
1.0
 40
0.7071067811865446
 41
0.3540150551110138
 42
1.570796326794894
  0
ELLIPSE
  5
C0
100
AcDbEntity
  8
USP-GEO
100
AcDbEllipse
 10
2.968434267421134
 20
2.500000000000009
 30
0.0
 11
0.0000000000000002
 21
-0.075
 31
0.0
210
0.0
220
0.0
230
1.0
 40
0.7071067811865446
 41
2.787577598478841
 42
7.853981633974506
  0
ELLIPSE
  5
C1
100
AcDbEntity
  8
USP-GEO
100
AcDbEllipse
 10
3.005203820042837
 20
2.50000000000001
 30
0.0
 11
0.0000000000000002
 21
-0.075
 31
0.0
210
0.0
220
0.0
230
1.0
 40
0.7071067811865446
 41
0.0000000000000038
 42
6.283185307179589
  0
LINE
  5
C2
100
AcDbEntity
  8
USP-HID
100
AcDbLine
 10
3.005203820042837
 20
2.57500000000001
 30
0.0
 11
2.96843426742113
 21
2.57500000000001
 31
0.0
  0
LINE
  5
C3
100
AcDbEntity
  8
USP-HID
100
AcDbLine
 10
3.005203820042837
 20
2.42500000000001
 30
0.0
 11
2.96843426742113
 21
2.42500000000001
 31
0.0
  0
ELLIPSE
  5
C4
100
AcDbEntity
  8
USP-HID
100
AcDbEllipse
 10
2.968434267421134
 20
2.500000000000009
 30
0.0
 11
0.0000000000000002
 21
-0.075
 31
0.0
210
0.0
220
0.0
230
1.0
 40
0.7071067811865446
 41
2.787577598478841
 42
6.63720036229063
  0
LINE
  5
C5
100
AcDbEntity
  8
USP-GEO
100
AcDbLine
 10
3.156791059494295
 20
3.03125000000001
 30
0.0
 11
3.513436819020654
 21
3.03125000000001
 31
0.0
  0
LINE
  5
C6
100
AcDbEntity
  8
USP-GEO
100
AcDbLine
 10
3.156791059494288
 20
3.031250000000011
 30
0.0
 11
3.104791059494289
 21
3.031250000000011
 31
0.0
  0
LINE
  5
C7
100
AcDbEntity
  8
USP-GEO
100
AcDbLine
 10
3.476667266398955
 20
3.031250000000008
 30
0.0
 11
3.476667266398955
 21
2.906250000000008
 31
0.0
  0
LINE
  5
C8
100
AcDbEntity
  8
USP-GEO
100
AcDbLine
 10
3.513436819020654
 20
2.906250000000008
 30
0.0
 11
3.513436819020654
 21
3.031250000000008
 31
0.0
  0
LINE
  5
C9
100
AcDbEntity
  8
USP-HID
100
AcDbLine
 10
1.439403018218275
 20
3.980000000000012
 30
0.0
 11
1.491403018218267
 21
3.980000000000012
 31
0.0
  0
LINE
  5
CA
100
AcDbEntity
  8
USP-HID
100
AcDbLine
 10
1.439403018218275
 20
4.130000000000011
 30
0.0
 11
1.491403018218267
 21
4.130000000000011
 31
0.0
  0
LINE
  5
CB
100
AcDbEntity
  8
USP-HID
100
AcDbLine
 10
1.439403018218268
 20
4.530000000000011
 30
0.0
 11
1.491403018218264
 21
4.530000000000011
 31
0.0
  0
LINE
  5
CC
100
AcDbEntity
  8
USP-HID
100
AcDbLine
 10
1.439403018218268
 20
4.68000000000001
 30
0.0
 11
1.491403018218264
 21
4.68000000000001
 31
0.0
  0
LINE
  5
CD
100
AcDbEntity
  8
USP-HID
100
AcDbLine
 10
1.439403018218271
 20
5.080000000000014
 30
0.0
 11
1.491403018218264
 21
5.080000000000014
 31
0.0
  0
LINE
  5
CE
100
AcDbEntity
  8
USP-HID
100
AcDbLine
 10
1.439403018218271
 20
5.230000000000012
 30
0.0
 11
1.491403018218264
 21
5.230000000000012
 31
0.0
  0
LINE
  5
CF
100
AcDbEntity
  8
USP-HID
100
AcDbLine
 10
3.156791059494281
 20
4.130000000000007
 30
0.0
 11
3.104791059494282
 21
4.130000000000007
 31
0.0
  0
LINE
  5
D0
100
AcDbEntity
  8
USP-HID
100
AcDbLine
 10
3.156791059494281
 20
3.980000000000008
 30
0.0
 11
3.104791059494282
 21
3.980000000000008
 31
0.0
  0
LINE
  5
D1
100
AcDbEntity
  8
USP-HID
100
AcDbLine
 10
3.156791059494278
 20
4.68000000000001
 30
0.0
 11
3.104791059494282
 21
4.68000000000001
 31
0.0
  0
LINE
  5
D2
100
AcDbEntity
  8
USP-HID
100
AcDbLine
 10
3.156791059494278
 20
4.530000000000011
 30
0.0
 11
3.104791059494282
 21
4.530000000000011
 31
0.0
  0
LINE
  5
D3
100
AcDbEntity
  8
USP-HID
100
AcDbLine
 10
3.156791059494281
 20
5.08000000000001
 30
0.0
 11
3.104791059494282
 21
5.08000000000001
 31
0.0
  0
LINE
  5
D4
100
AcDbEntity
  8
USP-HID
100
AcDbLine
 10
3.156791059494281
 20
5.230000000000009
 30
0.0
 11
3.104791059494282
 21
5.230000000000009
 31
0.0
  0
LINE
  5
D5
100
AcDbEntity
  8
USP-GEO
100
AcDbLine
 10
4.419417382415915
 20
4.00000000000001
 30
0.0
 11
4.596194077712546
 21
4.00000000000001
 31
0.0
  0
LINE
  5
D6
100
AcDbEntity
  8
USP-HID
100
AcDbLine
 10
4.419417382415915
 20
4.00000000000001
 30
0.0
 11
4.382647829794219
 21
4.00000000000001
 31
0.0
  0
LINE
  5
D7
100
AcDbEntity
  8
USP-GEO
100
AcDbLine
 10
3.156791059494285
 20
6.630000000000014
 30
0.0
 11
3.889087296525993
 21
6.630000000000014
 31
0.0
  0
LINE
  5
D8
100
AcDbEntity
  8
USP-HID
100
AcDbLine
 10
1.439403018218264
 20
5.630000000000014
 30
0.0
 11
1.491403018218257
 21
5.630000000000014
 31
0.0
  0
LINE
  5
D9
100
AcDbEntity
  8
USP-HID
100
AcDbLine
 10
1.439403018218264
 20
5.780000000000013
 30
0.0
 11
1.491403018218257
 21
5.780000000000013
 31
0.0
  0
LINE
  5
DA
100
AcDbEntity
  8
USP-HID
100
AcDbLine
 10
1.439403018218268
 20
6.180000000000015
 30
0.0
 11
1.491403018218264
 21
6.180000000000015
 31
0.0
  0
LINE
  5
DB
100
AcDbEntity
  8
USP-HID
100
AcDbLine
 10
1.439403018218268
 20
6.330000000000014
 30
0.0
 11
1.491403018218264
 21
6.330000000000014
 31
0.0
  0
LINE
  5
DC
100
AcDbEntity
  8
USP-GEO
100
AcDbLine
 10
1.439403018218268
 20
6.630000000000014
 30
0.0
 11
1.491403018218264
 21
6.630000000000014
 31
0.0
  0
LINE
  5
DD
100
AcDbEntity
  8
USP-HID
100
AcDbLine
 10
3.156791059494274
 20
5.78000000000001
 30
0.0
 11
3.104791059494274
 21
5.78000000000001
 31
0.0
  0
LINE
  5
DE
100
AcDbEntity
  8
USP-HID
100
AcDbLine
 10
3.156791059494274
 20
5.630000000000011
 30
0.0
 11
3.104791059494274
 21
5.630000000000011
 31
0.0
  0
LINE
  5
DF
100
AcDbEntity
  8
USP-HID
100
AcDbLine
 10
3.156791059494274
 20
6.330000000000014
 30
0.0
 11
3.104791059494282
 21
6.330000000000014
 31
0.0
  0
LINE
  5
E0
100
AcDbEntity
  8
USP-HID
100
AcDbLine
 10
3.156791059494274
 20
6.180000000000015
 30
0.0
 11
3.104791059494282
 21
6.180000000000015
 31
0.0
  0
LINE
  5
E1
100
AcDbEntity
  8
USP-GEO
100
AcDbLine
 10
3.156791059494274
 20
6.630000000000016
 30
0.0
 11
3.104791059494278
 21
6.630000000000016
 31
0.0
  0
LINE
  5
E2
100
AcDbEntity
  8
USP-HID
100
AcDbLine
 10
3.889087296525996
 20
6.550000000000013
 30
0.0
 11
3.852317743904301
 21
6.550000000000013
 31
0.0
  0
LINE
  5
E3
100
AcDbEntity
  8
USP-HID
100
AcDbLine
 10
3.852317743904293
 20
6.550000000000013
 30
0.0
 11
3.852317743904293
 21
6.630000000000014
 31
0.0
  0
LINE
  5
E4
100
AcDbEntity
  8
USP-GEO
100
AcDbLine
 10
3.889087296525996
 20
6.550000000000013
 30
0.0
 11
3.889087296525996
 21
6.630000000000014
 31
0.0
  0
ENDBLK
  5
E6
100
AcDbEntity
  8
0
100
AcDbBlockEnd
  0
BLOCK
  5
136
100
AcDbEntity
  8
0
100
AcDbBlockBegin
  2
HHCP2_S
 70
     0
 10
0.0
 20
0.0
 30
0.0
  3
HHCP2_S
  1

  0
LINE
  5
E9
100
AcDbEntity
  8
USP-GEO
100
AcDbLine
 10
2.566621090268142
 20
0.5625000000000054
 30
0.0
 11
2.566621090268142
 21
4.000000000000005
 31
0.0
  0
LINE
  5
EA
100
AcDbEntity
  8
USP-GEO
100
AcDbLine
 10
2.529851537646443
 20
0.5625000000000063
 30
0.0
 11
2.529851537646443
 21
4.000000000000003
 31
0.0
  0
LINE
  5
EB
100
AcDbEntity
  8
USP-GEO
100
AcDbLine
 10
0.2317544987901527
 20
0.0937499999999982
 30
0.0
 11
0.2317544987901527
 21
2.906249999999999
 31
0.0
  0
LINE
  5
EC
100
AcDbEntity
  8
USP-HID
100
AcDbLine
 10
0.3052936040335368
 20
0.0937499999999974
 30
0.0
 11
0.3052936040335368
 21
2.906249999999999
 31
0.0
  0
TEXT
  5
ED
100
AcDbEntity
  8
USP-TXT
100
AcDbText
 10
-0.9250227881992625
 20
-1.416514012731392
 30
0.0
 40
0.25
  1
HHCP2 - RIGHT VIEW
 72
     1
 11
1.283310545134071
 21
-1.416514012731392
 31
0.0
100
AcDbText
  0
LINE
  5
EE
100
AcDbEntity
  8
USP-GEO
100
AcDbLine
 10
1.822744756459893
 20
0.0625000000000036
 30
0.0
 11
2.17629814705317
 21
0.0625000000000045
 31
0.0
  0
LINE
  5
EF
100
AcDbEntity
  8
USP-GEO
100
AcDbLine
 10
0.3201428464384719
 20
0.0
 30
0.0
 11
1.82274475645989
 21
0.0000000000000044
 31
0.0
  0
LINE
  5
F0
100
AcDbEntity
  8
USP-GEO
100
AcDbLine
 10
0.3201428464384719
 20
0.0
 30
0.0
 11
0.3201428464384719
 21
0.0937499999999974
 31
0.0
  0
LINE
  5
F1
100
AcDbEntity
  8
USP-HID
100
AcDbLine
 10
0.356912399060171
 20
0.0937499999999982
 30
0.0
 11
0.356912399060171
 21
-0.0000000000000009
 31
0.0
  0
LINE
  5
F2
100
AcDbEntity
  8
USP-GEO
100
AcDbLine
 10
0.2317544987901527
 20
0.0937499999999982
 30
0.0
 11
0.3201428464384719
 21
0.0937499999999982
 31
0.0
  0
LINE
  5
F3
100
AcDbEntity
  8
USP-HID
100
AcDbLine
 10
0.3201428464384719
 20
0.0937499999999974
 30
0.0
 11
0.3569123990601639
 21
0.0937499999999974
 31
0.0
  0
LINE
  5
F4
100
AcDbEntity
  8
USP-GEO
100
AcDbLine
 10
1.859514309081593
 20
0.0000000000000018
 30
0.0
 11
1.859514309081593
 21
0.0625000000000045
 31
0.0
  0
LINE
  5
F5
100
AcDbEntity
  8
USP-GEO
100
AcDbLine
 10
1.82274475645989
 20
0.0000000000000053
 30
0.0
 11
1.82274475645989
 21
0.0625000000000036
 31
0.0
  0
LINE
  5
F6
100
AcDbEntity
  8
USP-GEO
100
AcDbLine
 10
1.82274475645989
 20
0.0000000000000053
 30
0.0
 11
1.859514309081582
 21
0.0000000000000053
 31
0.0
  0
ELLIPSE
  5
F7
100
AcDbEntity
  8
USP-GEO
100
AcDbEllipse
 10
1.859514309081582
 20
0.3750000000000053
 30
0.0
 11
0.0
 21
-0.075
 31
0.0
210
0.0
220
0.0
230
1.0
 40
0.7071067811865505
 41
-2.787577598478849
 42
-0.3540150551109428
  0
ELLIPSE
  5
F8
100
AcDbEntity
  8
USP-GEO
100
AcDbEllipse
 10
1.822744756459883
 20
0.3750000000000044
 30
0.0
 11
0.0
 21
-0.075
 31
0.0
210
0.0
220
0.0
230
1.0
 40
0.7071067811865505
 41
0.0000000000000005
 42
6.283185307179587
  0
ELLIPSE
  5
F9
100
AcDbEntity
  8
USP-HID
100
AcDbEllipse
 10
1.859514309081582
 20
0.3750000000000053
 30
0.0
 11
0.0
 21
-0.075
 31
0.0
210
0.0
220
0.0
230
1.0
 40
0.7071067811865505
 41
-2.787577598478849
 42
1.570796326794896
  0
LINE
  5
FA
100
AcDbEntity
  8
USP-HID
100
AcDbLine
 10
1.822744756459883
 20
0.3000000000000043
 30
0.0
 11
1.859514309081582
 21
0.3000000000000043
 31
0.0
  0
ELLIPSE
  5
FB
100
AcDbEntity
  8
USP-HID
100
AcDbEllipse
 10
1.859514309081582
 20
0.3750000000000053
 30
0.0
 11
0.0
 21
-0.075
 31
0.0
210
0.0
220
0.0
230
1.0
 40
0.7071067811865505
 41
-0.3540150551109428
 42
1.570796326794896
  0
LINE
  5
FC
100
AcDbEntity
  8
USP-HID
100
AcDbLine
 10
1.822744756459883
 20
0.4500000000000047
 30
0.0
 11
1.859514309081582
 21
0.4500000000000047
 31
0.0
  0
ELLIPSE
  5
FD
100
AcDbEntity
  8
USP-HID
100
AcDbEllipse
 10
0.7325628765655204
 20
1.875
 30
0.0
 11
0.0
 21
-0.075
 31
0.0
210
0.0
220
0.0
230
1.0
 40
0.7071067811865505
 41
-2.787577598478847
 42
1.570796326794896
  0
ELLIPSE
  5
FE
100
AcDbEntity
  8
USP-HID
100
AcDbEllipse
 10
0.7325628765655204
 20
1.875
 30
0.0
 11
0.0
 21
-0.075
 31
0.0
210
0.0
220
0.0
230
1.0
 40
0.7071067811865505
 41
-0.3540150551109428
 42
1.570796326794896
  0
ELLIPSE
  5
FF
100
AcDbEntity
  8
USP-GEO
100
AcDbEllipse
 10
0.7325628765655204
 20
1.875
 30
0.0
 11
0.0
 21
-0.075
 31
0.0
210
0.0
220
0.0
230
1.0
 40
0.7071067811865505
 41
-2.787577598478847
 42
-0.3540150551109428
  0
ELLIPSE
  5
100
100
AcDbEntity
  8
USP-GEO
100
AcDbEllipse
 10
0.6957933239438212
 20
1.874999999999999
 30
0.0
 11
0.0
 21
-0.075
 31
0.0
210
0.0
220
0.0
230
1.0
 40
0.7071067811865505
 41
0.0000000000000005
 42
6.283185307179587
  0
LINE
  5
101
100
AcDbEntity
  8
USP-HID
100
AcDbLine
 10
0.6957933239438212
 20
1.799999999999998
 30
0.0
 11
0.7325628765655204
 21
1.799999999999998
 31
0.0
  0
LINE
  5
102
100
AcDbEntity
  8
USP-HID
100
AcDbLine
 10
0.6957933239438212
 20
1.949999999999999
 30
0.0
 11
0.7325628765655204
 21
1.949999999999999
 31
0.0
  0
ELLIPSE
  5
103
100
AcDbEntity
  8
USP-GEO
100
AcDbEllipse
 10
1.115637975273337
 20
1.000000000000001
 30
0.0
 11
0.0
 21
-0.075
 31
0.0
210
0.0
220
0.0
230
1.0
 40
0.7071067811865505
 41
0.0000000000000005
 42
6.283185307179587
  0
ELLIPSE
  5
104
100
AcDbEntity
  8
USP-GEO
100
AcDbEllipse
 10
1.152407527895032
 20
1.000000000000001
 30
0.0
 11
0.0
 21
-0.075
 31
0.0
210
0.0
220
0.0
230
1.0
 40
0.7071067811865505
 41
-2.787577598478853
 42
-0.3540150551109428
  0
LINE
  5
105
100
AcDbEntity
  8
USP-HID
100
AcDbLine
 10
1.115637975273337
 20
0.9250000000000015
 30
0.0
 11
1.152407527895036
 21
0.9250000000000015
 31
0.0
  0
LINE
  5
106
100
AcDbEntity
  8
USP-HID
100
AcDbLine
 10
1.115637975273337
 20
1.075000000000001
 30
0.0
 11
1.152407527895036
 21
1.075000000000001
 31
0.0
  0
ELLIPSE
  5
107
100
AcDbEntity
  8
USP-HID
100
AcDbEllipse
 10
1.152407527895032
 20
1.000000000000001
 30
0.0
 11
0.0
 21
-0.075
 31
0.0
210
0.0
220
0.0
230
1.0
 40
0.7071067811865505
 41
-2.787577598478853
 42
1.570796326794896
  0
ELLIPSE
  5
108
100
AcDbEntity
  8
USP-HID
100
AcDbEllipse
 10
1.152407527895032
 20
1.000000000000001
 30
0.0
 11
0.0
 21
-0.075
 31
0.0
210
0.0
220
0.0
230
1.0
 40
0.7071067811865505
 41
-0.3540150551109428
 42
1.570796326794896
  0
LINE
  5
109
100
AcDbEntity
  8
USP-HID
100
AcDbLine
 10
1.469191365866596
 20
1.799999999999994
 30
0.0
 11
1.505960918488295
 21
1.799999999999994
 31
0.0
  0
LINE
  5
10A
100
AcDbEntity
  8
USP-HID
100
AcDbLine
 10
1.469191365866596
 20
1.949999999999994
 30
0.0
 11
1.505960918488295
 21
1.949999999999994
 31
0.0
  0
ELLIPSE
  5
10B
100
AcDbEntity
  8
USP-HID
100
AcDbEllipse
 10
1.469191365866596
 20
1.874999999999994
 30
0.0
 11
0.0
 21
-0.075
 31
0.0
210
0.0
220
0.0
230
1.0
 40
0.7071067811865447
 41
0.0000000000000005
 42
6.283185307179587
  0
ELLIPSE
  5
10C
100
AcDbEntity
  8
USP-HID
100
AcDbEllipse
 10
1.505960918488295
 20
1.874999999999993
 30
0.0
 11
0.0
 21
-0.075
 31
0.0
210
0.0
220
0.0
230
1.0
 40
0.7071067811865447
 41
0.0000000000000005
 42
6.283185307179587
  0
LINE
  5
10D
100
AcDbEntity
  8
USP-GEO
100
AcDbLine
 10
2.213067699674866
 20
0.0625000000000045
 30
0.0
 11
2.566621090268142
 21
0.5625000000000054
 31
0.0
  0
LINE
  5
10E
100
AcDbEntity
  8
USP-GEO
100
AcDbLine
 10
2.176298147053167
 20
0.0625000000000036
 30
0.0
 11
2.529851537646443
 21
0.5625000000000018
 31
0.0
  0
LINE
  5
10F
100
AcDbEntity
  8
USP-GEO
100
AcDbLine
 10
2.176298147053167
 20
0.0625000000000036
 30
0.0
 11
2.213067699674862
 21
0.0625000000000036
 31
0.0
  0
LINE
  5
110
100
AcDbEntity
  8
USP-GEO
100
AcDbLine
 10
2.529851537646443
 20
0.5625000000000063
 30
0.0
 11
2.566621090268135
 21
0.5625000000000063
 31
0.0
  0
ELLIPSE
  5
111
100
AcDbEntity
  8
USP-GEO
100
AcDbEllipse
 10
2.213067699674859
 20
1.875000000000003
 30
0.0
 11
0.0
 21
-0.075
 31
0.0
210
0.0
220
0.0
230
1.0
 40
0.7071067811865505
 41
-2.787577598478849
 42
-0.3540150551109428
  0
ELLIPSE
  5
112
100
AcDbEntity
  8
USP-GEO
100
AcDbEllipse
 10
2.176298147053159
 20
1.875000000000004
 30
0.0
 11
0.0
 21
-0.075
 31
0.0
210
0.0
220
0.0
230
1.0
 40
0.7071067811865505
 41
0.0000000000000005
 42
6.283185307179587
  0
LINE
  5
113
100
AcDbEntity
  8
USP-HID
100
AcDbLine
 10
2.176298147053159
 20
1.800000000000004
 30
0.0
 11
2.213067699674859
 21
1.800000000000004
 31
0.0
  0
LINE
  5
114
100
AcDbEntity
  8
USP-HID
100
AcDbLine
 10
2.176298147053159
 20
1.950000000000004
 30
0.0
 11
2.213067699674859
 21
1.950000000000004
 31
0.0
  0
ELLIPSE
  5
115
100
AcDbEntity
  8
USP-HID
100
AcDbEllipse
 10
2.213067699674859
 20
1.875000000000003
 30
0.0
 11
0.0
 21
-0.075
 31
0.0
210
0.0
220
0.0
230
1.0
 40
0.7071067811865505
 41
-2.787577598478849
 42
1.570796326794896
  0
ELLIPSE
  5
116
100
AcDbEntity
  8
USP-HID
100
AcDbEllipse
 10
2.213067699674859
 20
1.875000000000003
 30
0.0
 11
0.0
 21
-0.075
 31
0.0
210
0.0
220
0.0
230
1.0
 40
0.7071067811865505
 41
-0.3540150551109428
 42
1.570796326794896
  0
LINE
  5
117
100
AcDbEntity
  8
USP-GEO
100
AcDbLine
 10
2.3898443949715
 20
4.000000000000001
 30
0.0
 11
1.859514309081593
 21
6.550000000000002
 31
0.0
  0
LINE
  5
118
100
AcDbEntity
  8
USP-GEO
100
AcDbLine
 10
2.353074842349801
 20
4.000000000000001
 30
0.0
 11
1.82274475645989
 21
6.550000000000004
 31
0.0
  0
LINE
  5
119
100
AcDbEntity
  8
USP-GEO
100
AcDbLine
 10
1.090448519428175
 20
3.031250000000001
 30
0.0
 11
1.090448519428175
 21
6.630000000000004
 31
0.0
  0
LINE
  5
11A
100
AcDbEntity
  8
USP-GEO
100
AcDbLine
 10
0.0
 20
3.031250000000003
 30
0.0
 11
0.0
 21
6.630000000000007
 31
0.0
  0
LINE
  5
11B
100
AcDbEntity
  8
USP-HID
100
AcDbLine
 10
1.111987624671549
 20
3.031250000000001
 30
0.0
 11
1.111987624671556
 21
6.630000000000016
 31
0.0
  0
LINE
  5
11C
100
AcDbEntity
  8
USP-GEO
100
AcDbLine
 10
0.2317544987901527
 20
2.906249999999999
 30
0.0
 11
1.447094278954534
 21
2.906249999999999
 31
0.0
  0
LINE
  5
11D
100
AcDbEntity
  8
USP-GEO
100
AcDbLine
 10
0.0
 20
3.031250000000003
 30
0.0
 11
1.090448519428171
 21
3.031250000000001
 31
0.0
  0
LINE
  5
11E
100
AcDbEntity
  8
USP-GEO
100
AcDbLine
 10
1.090448519428175
 20
3.031250000000001
 30
0.0
 11
1.447094278954534
 21
3.031250000000001
 31
0.0
  0
ELLIPSE
  5
11F
100
AcDbEntity
  8
USP-GEO
100
AcDbEllipse
 10
0.975630832598398
 20
2.5
 30
0.0
 11
0.0
 21
-0.075
 31
0.0
210
0.0
220
0.0
230
1.0
 40
0.7071067811865505
 41
-2.787577598478846
 42
-0.3540150551109478
  0
ELLIPSE
  5
120
100
AcDbEntity
  8
USP-GEO
100
AcDbEllipse
 10
0.9388612799766953
 20
2.500000000000001
 30
0.0
 11
0.0
 21
-0.075
 31
0.0
210
0.0
220
0.0
230
1.0
 40
0.7071067811865505
 41
0.0000000000000005
 42
6.283185307179587
  0
LINE
  5
121
100
AcDbEntity
  8
USP-HID
100
AcDbLine
 10
0.9388612799766953
 20
2.425000000000001
 30
0.0
 11
0.9756308325983944
 21
2.425000000000001
 31
0.0
  0
LINE
  5
122
100
AcDbEntity
  8
USP-HID
100
AcDbLine
 10
0.9388612799766953
 20
2.575000000000001
 30
0.0
 11
0.9756308325983944
 21
2.575000000000001
 31
0.0
  0
ELLIPSE
  5
123
100
AcDbEntity
  8
USP-HID
100
AcDbEllipse
 10
0.975630832598398
 20
2.5
 30
0.0
 11
0.0
 21
-0.075
 31
0.0
210
0.0
220
0.0
230
1.0
 40
0.7071067811865505
 41
-2.787577598478846
 42
1.570796326794896
  0
ELLIPSE
  5
124
100
AcDbEntity
  8
USP-HID
100
AcDbEllipse
 10
0.975630832598398
 20
2.5
 30
0.0
 11
0.0
 21
-0.075
 31
0.0
210
0.0
220
0.0
230
1.0
 40
0.7071067811865505
 41
-0.3540150551109478
 42
1.570796326794896
  0
LINE
  5
125
100
AcDbEntity
  8
USP-GEO
100
AcDbLine
 10
1.447094278954534
 20
2.906249999999999
 30
0.0
 11
1.447094278954534
 21
3.031249999999999
 31
0.0
  0
LINE
  5
126
100
AcDbEntity
  8
USP-HID
100
AcDbLine
 10
1.447094278954534
 20
3.031249999999999
 30
0.0
 11
1.483863831576226
 21
3.031249999999999
 31
0.0
  0
LINE
  5
127
100
AcDbEntity
  8
USP-HID
100
AcDbLine
 10
1.447094278954534
 20
2.906249999999999
 30
0.0
 11
1.483863831576226
 21
2.906249999999999
 31
0.0
  0
LINE
  5
128
100
AcDbEntity
  8
USP-HID
100
AcDbLine
 10
1.483863831576233
 20
3.031249999999999
 30
0.0
 11
1.483863831576233
 21
2.906249999999999
 31
0.0
  0
CIRCLE
  5
129
100
AcDbEntity
  8
USP-GEO
100
AcDbCircle
 10
0.3474999999999966
 20
4.054999999999999
 30
0.0
 40
0.075
  0
CIRCLE
  5
12A
100
AcDbEntity
  8
USP-GEO
100
AcDbCircle
 10
0.3474999999999966
 20
5.155000000000001
 30
0.0
 40
0.075
  0
CIRCLE
  5
12B
100
AcDbEntity
  8
USP-GEO
100
AcDbCircle
 10
0.8974999999999937
 20
4.605000000000002
 30
0.0
 40
0.075
  0
LINE
  5
12C
100
AcDbEntity
  8
USP-GEO
100
AcDbLine
 10
2.353074842349801
 20
4.000000000000001
 30
0.0
 11
2.529851537646447
 21
4.000000000000001
 31
0.0
  0
LINE
  5
12D
100
AcDbEntity
  8
USP-GEO
100
AcDbLine
 10
2.529851537646447
 20
4.000000000000003
 30
0.0
 11
2.566621090268135
 21
4.000000000000003
 31
0.0
  0
LINE
  5
12E
100
AcDbEntity
  8
USP-GEO
100
AcDbLine
 10
0.0
 20
6.630000000000007
 30
0.0
 11
1.090448519428175
 21
6.630000000000014
 31
0.0
  0
CIRCLE
  5
12F
100
AcDbEntity
  8
USP-GEO
100
AcDbCircle
 10
0.3474999999999966
 20
6.255000000000006
 30
0.0
 40
0.075
  0
CIRCLE
  5
130
100
AcDbEntity
  8
USP-GEO
100
AcDbCircle
 10
0.8974999999999937
 20
5.705000000000001
 30
0.0
 40
0.075
  0
LINE
  5
131
100
AcDbEntity
  8
USP-GEO
100
AcDbLine
 10
1.090448519428178
 20
6.630000000000006
 30
0.0
 11
1.822744756459893
 21
6.630000000000006
 31
0.0
  0
LINE
  5
132
100
AcDbEntity
  8
USP-GEO
100
AcDbLine
 10
1.859514309081596
 20
6.550000000000004
 30
0.0
 11
1.859514309081596
 21
6.630000000000006
 31
0.0
  0
LINE
  5
133
100
AcDbEntity
  8
USP-GEO
100
AcDbLine
 10
1.822744756459893
 20
6.550000000000004
 30
0.0
 11
1.822744756459893
 21
6.630000000000006
 31
0.0
  0
LINE
  5
134
100
AcDbEntity
  8
USP-GEO
100
AcDbLine
 10
1.822744756459893
 20
6.550000000000004
 30
0.0
 11
1.859514309081585
 21
6.550000000000004
 31
0.0
  0
LINE
  5
135
100
AcDbEntity
  8
USP-GEO
100
AcDbLine
 10
1.822744756459893
 20
6.630000000000006
 30
0.0
 11
1.859514309081585
 21
6.630000000000006
 31
0.0
  0
ENDBLK
  5
137
100
AcDbEntity
  8
0
100
AcDbBlockEnd
  0
ENDSEC
  0
SECTION
  2
ENTITIES
  0
INSERT
  5
3
100
AcDbEntity
  8
USP
100
AcDbBlockReference
  2
HHCP2_T
 10
0.0013693845207179
 20
13.99547224779516
 30
0.0
  0
INSERT
  5
55
100
AcDbEntity
  8
USP
100
AcDbBlockReference
  2
HHCP2_F
 10
0.0013693845207285
 20
1.417133193972802
 30
0.0
  0
INSERT
  5
E7
100
AcDbEntity
  8
USP
100
AcDbBlockReference
  2
HHCP2_S
 10
11.64233281258979
 20
1.417133193972811
 30
0.0
  0
ENDSEC
  0
SECTION
  2
OBJECTS
  0
DICTIONARY
  5
14D
102
{ACAD_XDICTIONARY
360
14E
102
}
100
AcDbDictionary
  3
ACAD_GROUP
350
14B
  3
ACAD_MLINESTYLE
350
14C
1001
ACAD
1000
TREAT_AS_HARD
1070
     0
  0
DICTIONARY
  5
A
100
AcDbDictionary
280
     1
1001
ACAD
1000
TREAT_AS_HARD
1070
     1
  0
DICTIONARY
  5
11
100
AcDbDictionary
280
     1
1001
ACAD
1000
TREAT_AS_HARD
1070
     1
  0
DICTIONARY
  5
17
100
AcDbDictionary
280
     1
1001
ACAD
1000
TREAT_AS_HARD
1070
     1
  0
DICTIONARY
  5
138
100
AcDbDictionary
280
     1
1001
ACAD
1000
TREAT_AS_HARD
1070
     1
  0
DICTIONARY
  5
13C
100
AcDbDictionary
280
     1
1001
ACAD
1000
TREAT_AS_HARD
1070
     1
  0
DICTIONARY
  5
14E
100
AcDbDictionary
280
     1
  0
DICTIONARY
  5
14B
102
{ACAD_REACTORS
330
14D
102
}
100
AcDbDictionary
1001
ACAD
1000
TREAT_AS_HARD
1070
     0
  0
DICTIONARY
  5
14C
102
{ACAD_REACTORS
330
14D
102
}
100
AcDbDictionary
  3
STANDARD
350
14F
1001
ACAD
1000
TREAT_AS_HARD
1070
     0
  0
MLINESTYLE
  5
14F
102
{ACAD_REACTORS
330
14C
102
}
100
AcDbMlineStyle
  2
STANDARD
 70
     0
  3

 62
     0
 51
90.0
 52
90.0
 71
     2
 49
0.5
 62
   256
  6
BYLAYER
 49
-0.5
 62
   256
  6
BYLAYER
  0
ENDSEC
  0
EOF
