  0
SECTION
  2
HEADER
  9
$ACADVER
  1
AC1015
  9
$ACADMAINTVER
 70
     6
  9
$DWGCODEPAGE
  3
ANSI_1252
  9
$INSBASE
 10
0.0
 20
0.0
 30
0.0
  9
$EXTMIN
 10
0.0
 20
0.0
 30
0.0
  9
$EXTMAX
 10
8.5
 20
11.0
 30
0.0
  9
$LIMMIN
 10
0.0
 20
0.0
  9
$LIMMAX
 10
8.5
 20
11.0
  9
$ORTHOMODE
 70
     0
  9
$REGENMODE
 70
     1
  9
$FILLMODE
 70
     1
  9
$QTEXTMODE
 70
     0
  9
$MIRRTEXT
 70
     1
  9
$LTSCALE
 40
1.0
  9
$ATTMODE
 70
     1
  9
$TEXTSIZE
 40
0.1388888889
  9
$TRACEWID
 40
0.05
  9
$TEXTSTYLE
  7
Standard
  9
$CLAYER
  8
0
  9
$CELTYPE
  6
ByLayer
  9
$CECOLOR
 62
   256
  9
$CELTSCALE
 40
1.0
  9
$DISPSILH
 70
     0
  9
$DIMSCALE
 40
1.0
  9
$DIMASZ
 40
0.13
  9
$DIMEXO
 40
0.05
  9
$DIMDLI
 40
0.38
  9
$DIMRND
 40
0.0
  9
$DIMDLE
 40
0.0
  9
$DIMEXE
 40
0.125
  9
$DIMTP
 40
0.0
  9
$DIMTM
 40
0.0
  9
$DIMTXT
 40
0.125
  9
$DIMCEN
 40
0.09
  9
$DIMTSZ
 40
0.0
  9
$DIMTOL
 70
     0
  9
$DIMLIM
 70
     0
  9
$DIMTIH
 70
     1
  9
$DIMTOH
 70
     1
  9
$DIMSE1
 70
     0
  9
$DIMSE2
 70
     0
  9
$DIMTAD
 70
     1
  9
$DIMZIN
 70
     0
  9
$DIMBLK
  1

  9
$DIMASO
 70
     1
  9
$DIMSHO
 70
     1
  9
$DIMPOST
  1

  9
$DIMAPOST
  1

  9
$DIMALT
 70
     0
  9
$DIMALTD
 70
     2
  9
$DIMALTF
 40
25.4
  9
$DIMLFAC
 40
4.0
  9
$DIMTOFL
 70
     0
  9
$DIMTVP
 40
0.0
  9
$DIMTIX
 70
     0
  9
$DIMSOXD
 70
     0
  9
$DIMSAH
 70
     0
  9
$DIMBLK1
  1

  9
$DIMBLK2
  1

  9
$DIMSTYLE
  2
Standard
  9
$DIMCLRD
 70
     0
  9
$DIMCLRE
 70
     0
  9
$DIMCLRT
 70
     0
  9
$DIMTFAC
 40
1.0
  9
$DIMGAP
 40
0.06
  9
$DIMJUST
 70
     0
  9
$DIMSD1
 70
     0
  9
$DIMSD2
 70
     0
  9
$DIMTOLJ
 70
     1
  9
$DIMTZIN
 70
     0
  9
$DIMALTZ
 70
     0
  9
$DIMALTTZ
 70
     0
  9
$DIMUPT
 70
     0
  9
$DIMDEC
 70
     3
  9
$DIMTDEC
 70
     3
  9
$DIMALTU
 70
     2
  9
$DIMALTTD
 70
     2
  9
$DIMTXSTY
  7
Standard
  9
$DIMAUNIT
 70
     0
  9
$DIMADEC
 70
     2
  9
$DIMALTRND
 40
0.0
  9
$DIMAZIN
 70
     0
  9
$DIMDSEP
 70
    46
  9
$DIMATFIT
 70
     3
  9
$DIMFRAC
 70
     0
  9
$DIMLDRBLK
  1

  9
$DIMLUNIT
 70
     2
  9
$DIMLWD
 70
    -2
  9
$DIMLWE
 70
    -2
  9
$DIMTMOVE
 70
     0
  9
$LUNITS
 70
     2
  9
$LUPREC
 70
     3
  9
$SKETCHINC
 40
0.1
  9
$FILLETRAD
 40
0.5
  9
$AUNITS
 70
     0
  9
$AUPREC
 70
     2
  9
$MENU
  1
.
  9
$ELEVATION
 40
0.0
  9
$PELEVATION
 40
0.0
  9
$THICKNESS
 40
0.0
  9
$LIMCHECK
 70
     0
  9
$CHAMFERA
 40
0.0
  9
$CHAMFERB
 40
0.0
  9
$CHAMFERC
 40
0.0
  9
$CHAMFERD
 40
0.0
  9
$SKPOLY
 70
     0
  9
$TDCREATE
 40
2457308.625868345
  9
$TDUCREATE
 40
2457308.834201678
  9
$TDUPDATE
 40
2457308.625872859
  9
$TDUUPDATE
 40
2457308.834206192
  9
$TDINDWG
 40
0.0000000116
  9
$TDUSRTIMER
 40
0.0000000116
  9
$USRTIMER
 70
     1
  9
$ANGBASE
 50
0.0
  9
$ANGDIR
 70
     0
  9
$PDMODE
 70
     0
  9
$PDSIZE
 40
-1.0
  9
$PLINEWID
 40
0.0
  9
$SPLFRAME
 70
     0
  9
$SPLINETYPE
 70
     6
  9
$SPLINESEGS
 70
     8
  9
$HANDSEED
  5
294
  9
$SURFTAB1
 70
     6
  9
$SURFTAB2
 70
     6
  9
$SURFTYPE
 70
     6
  9
$SURFU
 70
     6
  9
$SURFV
 70
     6
  9
$UCSBASE
  2

  9
$UCSNAME
  2

  9
$UCSORG
 10
0.0
 20
0.0
 30
0.0
  9
$UCSXDIR
 10
1.0
 20
0.0
 30
0.0
  9
$UCSYDIR
 10
0.0
 20
1.0
 30
0.0
  9
$UCSORTHOREF
  2

  9
$UCSORTHOVIEW
 70
     0
  9
$UCSORGTOP
 10
0.0
 20
0.0
 30
0.0
  9
$UCSORGBOTTOM
 10
0.0
 20
0.0
 30
0.0
  9
$UCSORGLEFT
 10
0.0
 20
0.0
 30
0.0
  9
$UCSORGRIGHT
 10
0.0
 20
0.0
 30
0.0
  9
$UCSORGFRONT
 10
0.0
 20
0.0
 30
0.0
  9
$UCSORGBACK
 10
0.0
 20
0.0
 30
0.0
  9
$PUCSBASE
  2

  9
$PUCSNAME
  2

  9
$PUCSORG
 10
0.0
 20
0.0
 30
0.0
  9
$PUCSXDIR
 10
1.0
 20
0.0
 30
0.0
  9
$PUCSYDIR
 10
0.0
 20
1.0
 30
0.0
  9
$PUCSORTHOREF
  2

  9
$PUCSORTHOVIEW
 70
     0
  9
$PUCSORGTOP
 10
0.0
 20
0.0
 30
0.0
  9
$PUCSORGBOTTOM
 10
0.0
 20
0.0
 30
0.0
  9
$PUCSORGLEFT
 10
0.0
 20
0.0
 30
0.0
  9
$PUCSORGRIGHT
 10
0.0
 20
0.0
 30
0.0
  9
$PUCSORGFRONT
 10
0.0
 20
0.0
 30
0.0
  9
$PUCSORGBACK
 10
0.0
 20
0.0
 30
0.0
  9
$USERI1
 70
     0
  9
$USERI2
 70
     0
  9
$USERI3
 70
     0
  9
$USERI4
 70
     0
  9
$USERI5
 70
     0
  9
$USERR1
 40
0.0
  9
$USERR2
 40
0.0
  9
$USERR3
 40
0.0
  9
$USERR4
 40
0.0
  9
$USERR5
 40
0.0
  9
$WORLDVIEW
 70
     1
  9
$SHADEDGE
 70
     3
  9
$SHADEDIF
 70
    70
  9
$TILEMODE
 70
     1
  9
$MAXACTVP
 70
    64
  9
$PINSBASE
 10
0.0
 20
0.0
 30
0.0
  9
$PLIMCHECK
 70
     0
  9
$PEXTMIN
 10
1.0000000000E+20
 20
1.0000000000E+20
 30
1.0000000000E+20
  9
$PEXTMAX
 10
-1.0000000000E+20
 20
-1.0000000000E+20
 30
-1.0000000000E+20
  9
$PLIMMIN
 10
0.0
 20
0.0
  9
$PLIMMAX
 10
12.0
 20
9.0
  9
$UNITMODE
 70
     0
  9
$VISRETAIN
 70
     1
  9
$PLINEGEN
 70
     0
  9
$PSLTSCALE
 70
     1
  9
$TREEDEPTH
 70
  3020
  9
$CMLSTYLE
  2
Standard
  9
$CMLJUST
 70
     0
  9
$CMLSCALE
 40
1.0
  9
$PROXYGRAPHICS
 70
     1
  9
$MEASUREMENT
 70
     0
  9
$CELWEIGHT
370
    -1
  9
$ENDCAPS
280
     0
  9
$JOINSTYLE
280
     0
  9
$LWDISPLAY
290
     1
  9
$INSUNITS
 70
     1
  9
$HYPERLINKBASE
  1

  9
$STYLESHEET
  1

  9
$XEDIT
290
     1
  9
$CEPSNTYPE
380
     0
  9
$PSTYLEMODE
290
     1
  9
$FINGERPRINTGUID
  2
{59256225-FDEA-43AF-A02E-EB60419AD8EA}
  9
$VERSIONGUID
  2
{FAEB1C32-E019-11D5-929B-00C0DF256EC4}
  9
$EXTNAMES
290
     1
  9
$PSVPSCALE
 40
0.0
  9
$OLESTARTUP
290
     0
  0
ENDSEC
  0
SECTION
  2
CLASSES
  0
CLASS
  1
ACDBDICTIONARYWDFLT
  2
AcDbDictionaryWithDefault
  3
ObjectDBX Classes
 90
        0
280
     0
281
     0
  0
CLASS
  1
VISUALSTYLE
  2
AcDbVisualStyle
  3
ObjectDBX Classes
 90
     4095
280
     0
281
     0
  0
CLASS
  1
MATERIAL
  2
AcDbMaterial
  3
ObjectDBX Classes
 90
     1153
280
     0
281
     0
  0
CLASS
  1
SCALE
  2
AcDbScale
  3
ObjectDBX Classes
 90
     1153
280
     0
281
     0
  0
CLASS
  1
SUN
  2
AcDbSun
  3
SCENEOE
 90
     1153
280
     0
281
     0
  0
CLASS
  1
ACDBPLACEHOLDER
  2
AcDbPlaceHolder
  3
ObjectDBX Classes
 90
        0
280
     0
281
     0
  0
CLASS
  1
LAYOUT
  2
AcDbLayout
  3
ObjectDBX Classes
 90
        0
280
     0
281
     0
  0
ENDSEC
  0
SECTION
  2
TABLES
  0
TABLE
  2
VPORT
  5
8
330
0
100
AcDbSymbolTable
 70
     1
  0
VPORT
  5
29
330
8
100
AcDbSymbolTableRecord
100
AcDbViewportTableRecord
  2
*Active
 70
     0
 10
0.0
 20
0.0
 11
1.0
 21
1.0
 12
4.25
 22
5.5
 13
0.0
 23
0.0
 14
0.5
 24
0.5
 15
0.5
 25
0.5
 16
0.0
 26
0.0
 36
1.0
 17
0.0
 27
0.0
 37
0.0
 40
11.0
 41
0.7727272727
 42
50.0
 43
0.0
 44
0.0
 50
0.0
 51
0.0
 71
     0
 72
  2000
 73
     1
 74
     3
 75
     0
 76
     0
 77
     0
 78
     0
281
     0
 65
     1
110
0.0
120
0.0
130
0.0
111
1.0
121
0.0
131
0.0
112
0.0
122
1.0
132
0.0
 79
     0
146
0.0
  0
ENDTAB
  0
TABLE
  2
LTYPE
  5
5
330
0
100
AcDbSymbolTable
 70
     6
  0
LTYPE
  5
14
330
5
100
AcDbSymbolTableRecord
100
AcDbLinetypeTableRecord
  2
ByBlock
 70
     0
  3

 72
    65
 73
     0
 40
0.0
  0
LTYPE
  5
15
330
5
100
AcDbSymbolTableRecord
100
AcDbLinetypeTableRecord
  2
ByLayer
 70
     0
  3

 72
    65
 73
     0
 40
0.0
  0
LTYPE
  5
16
330
5
100
AcDbSymbolTableRecord
100
AcDbLinetypeTableRecord
  2
Continuous
 70
     0
  3
Solid line
 72
    65
 73
     0
 40
0.0
  0
LTYPE
  5
6A
330
5
100
AcDbSymbolTableRecord
100
AcDbLinetypeTableRecord
  2
HIDDEN
 70
     0
  3
Hidden __ __ __ __ __ __ __ __ __ __ __ __ __ __
 72
    65
 73
     2
 40
0.075
 49
0.05
 74
     0
 49
-0.025
 74
     0
  0
LTYPE
  5
6B
330
5
100
AcDbSymbolTableRecord
100
AcDbLinetypeTableRecord
  2
PHANTOM
 70
     0
  3
Phantom ______  __  __  ______  __  __  ______
 72
    65
 73
     6
 40
0.5
 49
0.25
 74
     0
 49
-0.05
 74
     0
 49
0.05
 74
     0
 49
-0.05
 74
     0
 49
0.05
 74
     0
 49
-0.05
 74
     0
  0
LTYPE
  5
6C
330
5
100
AcDbSymbolTableRecord
100
AcDbLinetypeTableRecord
  2
CENTER
 70
     0
  3
Center ____ _ ____ _ ____ _ ____ _ ____ _ ____
 72
    65
 73
     4
 40
0.4
 49
0.25
 74
     0
 49
-0.05
 74
     0
 49
0.05
 74
     0
 49
-0.05
 74
     0
  0
LTYPE
  5
6D
330
5
100
AcDbSymbolTableRecord
100
AcDbLinetypeTableRecord
  2
CENTERX2
 70
     0
  3
Center (2x) ________  __  ________  __  _____
 72
    65
 73
     4
 40
0.8
 49
0.5
 74
     0
 49
-0.1
 74
     0
 49
0.1
 74
     0
 49
-0.1
 74
     0
  0
LTYPE
  5
6E
330
5
100
AcDbSymbolTableRecord
100
AcDbLinetypeTableRecord
  2
DOT2
 70
     0
  3
Dot (.5x) ........................................
 72
    65
 73
     2
 40
0.025
 49
0.0
 74
     0
 49
-0.025
 74
     0
  0
ENDTAB
  0
TABLE
  2
LAYER
  5
2
330
0
100
AcDbSymbolTable
 70
    26
  0
LAYER
  5
10
330
2
100
AcDbSymbolTableRecord
100
AcDbLayerTableRecord
  2
0
 70
     0
 62
     7
  6
Continuous
370
    -3
390
F
  0
LAYER
  5
6F
330
2
100
AcDbSymbolTableRecord
100
AcDbLayerTableRecord
  2
SLD-0
 70
     0
 62
   179
  6
Continuous
370
    -3
390
F
  0
LAYER
  5
70
330
2
100
AcDbSymbolTableRecord
100
AcDbLayerTableRecord
  2
SLD-DEFPOINTS
 70
     0
 62
   179
  6
Continuous
370
    -3
390
F
  0
LAYER
  5
71
330
2
100
AcDbSymbolTableRecord
100
AcDbLayerTableRecord
  2
OBJ
 70
     0
 62
   179
  6
Continuous
370
    30
390
F
  0
LAYER
  5
72
330
2
100
AcDbSymbolTableRecord
100
AcDbLayerTableRecord
  2
FORMAT
 70
     0
 62
     7
  6
Continuous
370
    -3
390
F
  0
LAYER
  5
73
330
2
100
AcDbSymbolTableRecord
100
AcDbLayerTableRecord
  2
REV-1
 70
     0
 62
    -7
  6
Continuous
370
    -3
390
F
  0
LAYER
  5
74
330
2
100
AcDbSymbolTableRecord
100
AcDbLayerTableRecord
  2
REV-2
 70
     0
 62
    -7
  6
Continuous
370
    -3
390
F
  0
LAYER
  5
75
330
2
100
AcDbSymbolTableRecord
100
AcDbLayerTableRecord
  2
REV-3
 70
     0
 62
    -7
  6
Continuous
370
    -3
390
F
  0
LAYER
  5
76
330
2
100
AcDbSymbolTableRecord
100
AcDbLayerTableRecord
  2
PAINT
 70
     0
 62
    -7
  6
Continuous
370
    -3
390
F
  0
LAYER
  5
77
330
2
100
AcDbSymbolTableRecord
100
AcDbLayerTableRecord
  2
STAMP-AREA
 70
     0
 62
    -7
  6
Continuous
370
    -3
390
F
  0
LAYER
  5
78
330
2
100
AcDbSymbolTableRecord
100
AcDbLayerTableRecord
  2
TOLERANCES
 70
     0
 62
     7
  6
Continuous
370
    -3
390
F
  0
LAYER
  5
79
330
2
100
AcDbSymbolTableRecord
100
AcDbLayerTableRecord
  2
BLANK-SIZE-1
 70
     0
 62
    -7
  6
Continuous
370
    -3
390
F
  0
LAYER
  5
7A
330
2
100
AcDbSymbolTableRecord
100
AcDbLayerTableRecord
  2
BLANK-SIZE-2
 70
     0
 62
    -7
  6
Continuous
370
    -3
390
F
  0
LAYER
  5
7B
330
2
100
AcDbSymbolTableRecord
100
AcDbLayerTableRecord
  2
BLANK-SIZE-3
 70
     0
 62
    -7
  6
Continuous
370
    -3
390
F
  0
LAYER
  5
7C
330
2
100
AcDbSymbolTableRecord
100
AcDbLayerTableRecord
  2
BLANK-SIZE-4
 70
     0
 62
    -7
  6
Continuous
370
    -3
390
F
  0
LAYER
  5
7D
330
2
100
AcDbSymbolTableRecord
100
AcDbLayerTableRecord
  2
BLANK-SIZE-5
 70
     0
 62
    -7
  6
Continuous
370
    -3
390
F
  0
LAYER
  5
7E
330
2
100
AcDbSymbolTableRecord
100
AcDbLayerTableRecord
  2
HDG
 70
     0
 62
    -7
  6
Continuous
370
    -3
390
F
  0
LAYER
  5
7F
330
2
100
AcDbSymbolTableRecord
100
AcDbLayerTableRecord
  2
FAX-NOTE
 70
     0
 62
    -7
  6
Continuous
370
    -3
390
F
  0
LAYER
  5
80
330
2
100
AcDbSymbolTableRecord
100
AcDbLayerTableRecord
  2
TOP_MOUNT_PAINT
 70
     0
 62
    -7
  6
Continuous
370
    -3
390
F
  0
LAYER
  5
81
330
2
100
AcDbSymbolTableRecord
100
AcDbLayerTableRecord
  2
QTY-BLANK-SIZE-1
 70
     0
 62
     7
  6
Continuous
370
    -3
390
F
  0
LAYER
  5
82
330
2
100
AcDbSymbolTableRecord
100
AcDbLayerTableRecord
  2
BOLD
 70
     0
 62
     1
  6
Continuous
370
    30
390
F
  0
LAYER
  5
83
330
2
100
AcDbSymbolTableRecord
100
AcDbLayerTableRecord
  2
BORDER
 70
     0
 62
   179
  6
Continuous
370
    -3
390
F
  0
LAYER
  5
84
330
2
100
AcDbSymbolTableRecord
100
AcDbLayerTableRecord
  2
ITEM_NUMBER
 70
     0
 62
    -7
  6
Continuous
370
    -3
390
F
  0
LAYER
  5
85
330
2
100
AcDbSymbolTableRecord
100
AcDbLayerTableRecord
  2
SLR
 70
     0
 62
    -7
  6
Continuous
370
    -3
390
F
  0
LAYER
  5
86
330
2
100
AcDbSymbolTableRecord
100
AcDbLayerTableRecord
  2
SLL
 70
     0
 62
     7
  6
Continuous
370
    -3
390
F
  0
LAYER
  5
87
330
2
100
AcDbSymbolTableRecord
100
AcDbLayerTableRecord
  2
DASH
 70
     0
 62
     7
  6
HIDDEN
370
    15
390
F
  0
ENDTAB
  0
TABLE
  2
STYLE
  5
3
330
0
100
AcDbSymbolTable
 70
     3
  0
STYLE
  5
11
330
3
100
AcDbSymbolTableRecord
100
AcDbTextStyleTableRecord
  2
Standard
 70
     0
 40
0.0
 41
1.0
 50
0.0
 71
     0
 42
0.1388888889
  3
txt
  4

  0
STYLE
  5
AC
330
3
100
AcDbSymbolTableRecord
100
AcDbTextStyleTableRecord
  2
SLDTEXTSTYLE0
 70
     0
 40
0.0
 41
0.7
 50
0.0
 71
     0
 42
0.1388888889
  3
TXT
  4

  0
STYLE
  5
B4
330
3
100
AcDbSymbolTableRecord
100
AcDbTextStyleTableRecord
  2
SLDTEXTSTYLE1
 70
     0
 40
0.0
 41
0.605
 50
0.0
 71
     0
 42
0.1388888889
  3
TXT
  4

  0
ENDTAB
  0
TABLE
  2
VIEW
  5
6
330
0
100
AcDbSymbolTable
 70
     0
  0
ENDTAB
  0
TABLE
  2
UCS
  5
7
330
0
100
AcDbSymbolTable
 70
     0
  0
ENDTAB
  0
TABLE
  2
APPID
  5
9
330
0
100
AcDbSymbolTable
 70
     1
  0
APPID
  5
12
330
9
100
AcDbSymbolTableRecord
100
AcDbRegAppTableRecord
  2
ACAD
 70
     0
  0
ENDTAB
  0
TABLE
  2
DIMSTYLE
  5
A
330
0
100
AcDbSymbolTable
 70
     1
100
AcDbDimStyleTable
  0
DIMSTYLE
105
27
330
A
100
AcDbSymbolTableRecord
100
AcDbDimStyleTableRecord
  2
Standard
 70
     0
178
     0
340
11
  0
ENDTAB
  0
TABLE
  2
BLOCK_RECORD
  5
1
330
0
100
AcDbSymbolTable
 70
    12
  0
BLOCK_RECORD
  5
1F
330
1
100
AcDbSymbolTableRecord
100
AcDbBlockTableRecord
  2
*Model_Space
340
22
  0
BLOCK_RECORD
  5
1B
330
1
100
AcDbSymbolTableRecord
100
AcDbBlockTableRecord
  2
*Paper_Space
340
1E
  0
BLOCK_RECORD
  5
23
330
1
100
AcDbSymbolTableRecord
100
AcDbBlockTableRecord
  2
*Paper_Space0
340
26
  0
BLOCK_RECORD
  5
B1
330
1
100
AcDbSymbolTableRecord
100
AcDbBlockTableRecord
  2
SW_NOTE_0
340
0
102
{BLKREFS
331
B9
102
}
  0
BLOCK_RECORD
  5
176
330
1
100
AcDbSymbolTableRecord
100
AcDbBlockTableRecord
  2
SW_CENTERMARKSYMBOL_0
340
0
102
{BLKREFS
331
181
102
}
  0
BLOCK_RECORD
  5
182
330
1
100
AcDbSymbolTableRecord
100
AcDbBlockTableRecord
  2
SW_CENTERMARKSYMBOL_1
340
0
102
{BLKREFS
331
18D
102
}
  0
BLOCK_RECORD
  5
18E
330
1
100
AcDbSymbolTableRecord
100
AcDbBlockTableRecord
  2
SW_CENTERMARKSYMBOL_2
340
0
102
{BLKREFS
331
199
102
}
  0
BLOCK_RECORD
  5
1D4
330
1
100
AcDbSymbolTableRecord
100
AcDbBlockTableRecord
  2
SW_CENTERMARKSYMBOL_3
340
0
102
{BLKREFS
331
1DF
102
}
  0
BLOCK_RECORD
  5
1E0
330
1
100
AcDbSymbolTableRecord
100
AcDbBlockTableRecord
  2
SW_CENTERMARKSYMBOL_4
340
0
102
{BLKREFS
331
1EB
102
}
  0
BLOCK_RECORD
  5
1EC
330
1
100
AcDbSymbolTableRecord
100
AcDbBlockTableRecord
  2
SW_CENTERMARKSYMBOL_5
340
0
102
{BLKREFS
331
1F7
102
}
  0
BLOCK_RECORD
  5
264
330
1
100
AcDbSymbolTableRecord
100
AcDbBlockTableRecord
  2
SW_CENTERMARKSYMBOL_6
340
0
102
{BLKREFS
331
26F
102
}
  0
BLOCK_RECORD
  5
270
330
1
100
AcDbSymbolTableRecord
100
AcDbBlockTableRecord
  2
SW_CENTERMARKSYMBOL_7
340
0
102
{BLKREFS
331
27B
102
}
  0
BLOCK_RECORD
  5
27C
330
1
100
AcDbSymbolTableRecord
100
AcDbBlockTableRecord
  2
SW_CENTERMARKSYMBOL_8
340
0
102
{BLKREFS
331
287
102
}
  0
BLOCK_RECORD
  5
288
330
1
100
AcDbSymbolTableRecord
100
AcDbBlockTableRecord
  2
SW_CENTERMARKSYMBOL_9
340
0
102
{BLKREFS
331
293
102
}
  0
ENDTAB
  0
ENDSEC
  0
SECTION
  2
BLOCKS
  0
BLOCK
  5
20
330
1F
100
AcDbEntity
  8
0
100
AcDbBlockBegin
  2
*Model_Space
 70
     0
 10
0.0
 20
0.0
 30
0.0
  3
*Model_Space
  1
*Model_Space
  0
ENDBLK
  5
21
330
1F
100
AcDbEntity
  8
0
100
AcDbBlockEnd
  0
BLOCK
  5
1C
330
1B
100
AcDbEntity
 67
     1
  8
0
100
AcDbBlockBegin
  2
*Paper_Space
 70
     0
 10
0.0
 20
0.0
 30
0.0
  3
*Paper_Space
  1
*Paper_Space
  0
ENDBLK
  5
1D
330
1B
100
AcDbEntity
 67
     1
  8
0
100
AcDbBlockEnd
  0
BLOCK
  5
24
330
23
100
AcDbEntity
  8
0
100
AcDbBlockBegin
  2
*Paper_Space0
 70
     0
 10
0.0
 20
0.0
 30
0.0
  3
*Paper_Space0
  1
*Paper_Space0
  0
ENDBLK
  5
25
330
23
100
AcDbEntity
  8
0
100
AcDbBlockEnd
  0
BLOCK
  5
B2
330
B1
100
AcDbEntity
  8
0
100
AcDbBlockBegin
  2
SW_NOTE_0
 70
     0
 10
0.0
 20
0.0
 30
0.0
  3
SW_NOTE_0
  1
SW_NOTE_0
  0
MTEXT
  5
B5
330
B1
100
AcDbEntity
  8
TOP_MOUNT_PAINT
 62
     0
100
AcDbMText
 10
0.0
 20
0.1342778896
 30
0.0
 40
0.1041666667
 41
0.0
 71
     1
 72
     1
  1
NOTE:
  7
SLDTEXTSTYLE1
 73
     1
 44
1.0
  0
MTEXT
  5
B6
330
B1
100
AcDbEntity
  8
TOP_MOUNT_PAINT
 62
     0
100
AcDbMText
 10
0.0
 20
-0.0046109977
 30
0.0
 40
0.1041666667
 41
0.0
 71
     1
 72
     1
  1
DIMENSIONS IN BRACKETS ARE FOR INFORMATIONAL
  7
SLDTEXTSTYLE1
 73
     1
 44
1.0
  0
MTEXT
  5
B7
330
B1
100
AcDbEntity
  8
TOP_MOUNT_PAINT
 62
     0
100
AcDbMText
 10
0.1171875
 20
-0.1434998849
 30
0.0
 40
0.1041666667
 41
0.0
 71
     1
 72
     1
  1
PURPOSES ONLY. NOT A PRODUCT SPECIFICATION
  7
SLDTEXTSTYLE1
 73
     1
 44
1.0
  0
MTEXT
  5
B8
330
B1
100
AcDbEntity
  8
TOP_MOUNT_PAINT
 62
     0
100
AcDbMText
 10
0.0
 20
-0.2823887721
 30
0.0
 40
0.1041666667
 41
0.0
 71
     1
 72
     1
  1
PAINT PER USP SPECIFICATION AFTER FAGRICATION
  7
SLDTEXTSTYLE1
 73
     1
 44
1.0
  0
ENDBLK
  5
B3
330
B1
100
AcDbEntity
  8
0
100
AcDbBlockEnd
  0
BLOCK
  5
177
330
176
100
AcDbEntity
  8
0
100
AcDbBlockBegin
  2
SW_CENTERMARKSYMBOL_0
 70
     0
 10
0.0
 20
0.0
 30
0.0
  3
SW_CENTERMARKSYMBOL_0
  1
SW_CENTERMARKSYMBOL_0
  0
LINE
  5
179
330
176
100
AcDbEntity
  8
BLANK-SIZE-2
 62
     0
100
AcDbLine
 10
0.0
 20
0.0
 30
0.0
 11
0.0
 21
0.025
 31
0.0
  0
LINE
  5
17A
330
176
100
AcDbEntity
  8
BLANK-SIZE-2
 62
     0
100
AcDbLine
 10
0.0
 20
0.0
 30
0.0
 11
-0.025
 21
0.0
 31
0.0
  0
LINE
  5
17B
330
176
100
AcDbEntity
  8
BLANK-SIZE-2
 62
     0
100
AcDbLine
 10
0.0
 20
0.0
 30
0.0
 11
0.0
 21
-0.025
 31
0.0
  0
LINE
  5
17C
330
176
100
AcDbEntity
  8
BLANK-SIZE-2
 62
     0
100
AcDbLine
 10
0.0
 20
0.0
 30
0.0
 11
0.025
 21
0.0
 31
0.0
  0
LINE
  5
17D
330
176
100
AcDbEntity
  8
BLANK-SIZE-2
 62
     0
100
AcDbLine
 10
0.0
 20
0.025
 30
0.0
 11
0.0
 21
0.0455
 31
0.0
  0
LINE
  5
17E
330
176
100
AcDbEntity
  8
BLANK-SIZE-2
 62
     0
100
AcDbLine
 10
-0.025
 20
0.0
 30
0.0
 11
-0.0455
 21
0.0
 31
0.0
  0
LINE
  5
17F
330
176
100
AcDbEntity
  8
BLANK-SIZE-2
 62
     0
100
AcDbLine
 10
0.0
 20
-0.025
 30
0.0
 11
0.0
 21
-0.0455
 31
0.0
  0
LINE
  5
180
330
176
100
AcDbEntity
  8
BLANK-SIZE-2
 62
     0
100
AcDbLine
 10
0.025
 20
0.0
 30
0.0
 11
0.0455
 21
0.0
 31
0.0
  0
ENDBLK
  5
178
330
176
100
AcDbEntity
  8
0
100
AcDbBlockEnd
  0
BLOCK
  5
183
330
182
100
AcDbEntity
  8
0
100
AcDbBlockBegin
  2
SW_CENTERMARKSYMBOL_1
 70
     0
 10
0.0
 20
0.0
 30
0.0
  3
SW_CENTERMARKSYMBOL_1
  1
SW_CENTERMARKSYMBOL_1
  0
LINE
  5
185
330
182
100
AcDbEntity
  8
BLANK-SIZE-2
 62
     0
100
AcDbLine
 10
0.0
 20
0.0
 30
0.0
 11
0.0
 21
0.025
 31
0.0
  0
LINE
  5
186
330
182
100
AcDbEntity
  8
BLANK-SIZE-2
 62
     0
100
AcDbLine
 10
0.0
 20
0.0
 30
0.0
 11
-0.025
 21
0.0
 31
0.0
  0
LINE
  5
187
330
182
100
AcDbEntity
  8
BLANK-SIZE-2
 62
     0
100
AcDbLine
 10
0.0
 20
0.0
 30
0.0
 11
0.0
 21
-0.025
 31
0.0
  0
LINE
  5
188
330
182
100
AcDbEntity
  8
BLANK-SIZE-2
 62
     0
100
AcDbLine
 10
0.0
 20
0.0
 30
0.0
 11
0.025
 21
0.0
 31
0.0
  0
LINE
  5
189
330
182
100
AcDbEntity
  8
BLANK-SIZE-2
 62
     0
100
AcDbLine
 10
0.0
 20
0.025
 30
0.0
 11
0.0
 21
0.0455
 31
0.0
  0
LINE
  5
18A
330
182
100
AcDbEntity
  8
BLANK-SIZE-2
 62
     0
100
AcDbLine
 10
-0.025
 20
0.0
 30
0.0
 11
-0.0455
 21
0.0
 31
0.0
  0
LINE
  5
18B
330
182
100
AcDbEntity
  8
BLANK-SIZE-2
 62
     0
100
AcDbLine
 10
0.0
 20
-0.025
 30
0.0
 11
0.0
 21
-0.0455
 31
0.0
  0
LINE
  5
18C
330
182
100
AcDbEntity
  8
BLANK-SIZE-2
 62
     0
100
AcDbLine
 10
0.025
 20
0.0
 30
0.0
 11
0.0455
 21
0.0
 31
0.0
  0
ENDBLK
  5
184
330
182
100
AcDbEntity
  8
0
100
AcDbBlockEnd
  0
BLOCK
  5
18F
330
18E
100
AcDbEntity
  8
0
100
AcDbBlockBegin
  2
SW_CENTERMARKSYMBOL_2
 70
     0
 10
0.0
 20
0.0
 30
0.0
  3
SW_CENTERMARKSYMBOL_2
  1
SW_CENTERMARKSYMBOL_2
  0
LINE
  5
191
330
18E
100
AcDbEntity
  8
BLANK-SIZE-2
 62
     0
100
AcDbLine
 10
0.0
 20
0.0
 30
0.0
 11
0.0
 21
0.025
 31
0.0
  0
LINE
  5
192
330
18E
100
AcDbEntity
  8
BLANK-SIZE-2
 62
     0
100
AcDbLine
 10
0.0
 20
0.0
 30
0.0
 11
-0.025
 21
0.0
 31
0.0
  0
LINE
  5
193
330
18E
100
AcDbEntity
  8
BLANK-SIZE-2
 62
     0
100
AcDbLine
 10
0.0
 20
0.0
 30
0.0
 11
0.0
 21
-0.025
 31
0.0
  0
LINE
  5
194
330
18E
100
AcDbEntity
  8
BLANK-SIZE-2
 62
     0
100
AcDbLine
 10
0.0
 20
0.0
 30
0.0
 11
0.025
 21
0.0
 31
0.0
  0
LINE
  5
195
330
18E
100
AcDbEntity
  8
BLANK-SIZE-2
 62
     0
100
AcDbLine
 10
0.0
 20
0.025
 30
0.0
 11
0.0
 21
0.0455
 31
0.0
  0
LINE
  5
196
330
18E
100
AcDbEntity
  8
BLANK-SIZE-2
 62
     0
100
AcDbLine
 10
-0.025
 20
0.0
 30
0.0
 11
-0.0455
 21
0.0
 31
0.0
  0
LINE
  5
197
330
18E
100
AcDbEntity
  8
BLANK-SIZE-2
 62
     0
100
AcDbLine
 10
0.0
 20
-0.025
 30
0.0
 11
0.0
 21
-0.0455
 31
0.0
  0
LINE
  5
198
330
18E
100
AcDbEntity
  8
BLANK-SIZE-2
 62
     0
100
AcDbLine
 10
0.025
 20
0.0
 30
0.0
 11
0.0455
 21
0.0
 31
0.0
  0
ENDBLK
  5
190
330
18E
100
AcDbEntity
  8
0
100
AcDbBlockEnd
  0
BLOCK
  5
1D5
330
1D4
100
AcDbEntity
  8
0
100
AcDbBlockBegin
  2
SW_CENTERMARKSYMBOL_3
 70
     0
 10
0.0
 20
0.0
 30
0.0
  3
SW_CENTERMARKSYMBOL_3
  1
SW_CENTERMARKSYMBOL_3
  0
LINE
  5
1D7
330
1D4
100
AcDbEntity
  8
BLANK-SIZE-2
 62
     0
100
AcDbLine
 10
0.0
 20
0.0
 30
0.0
 11
0.0
 21
0.025
 31
0.0
  0
LINE
  5
1D8
330
1D4
100
AcDbEntity
  8
BLANK-SIZE-2
 62
     0
100
AcDbLine
 10
0.0
 20
0.0
 30
0.0
 11
-0.025
 21
0.0
 31
0.0
  0
LINE
  5
1D9
330
1D4
100
AcDbEntity
  8
BLANK-SIZE-2
 62
     0
100
AcDbLine
 10
0.0
 20
0.0
 30
0.0
 11
0.0
 21
-0.025
 31
0.0
  0
LINE
  5
1DA
330
1D4
100
AcDbEntity
  8
BLANK-SIZE-2
 62
     0
100
AcDbLine
 10
0.0
 20
0.0
 30
0.0
 11
0.025
 21
0.0
 31
0.0
  0
LINE
  5
1DB
330
1D4
100
AcDbEntity
  8
BLANK-SIZE-2
 62
     0
100
AcDbLine
 10
0.0
 20
0.025
 30
0.0
 11
0.0
 21
0.0455
 31
0.0
  0
LINE
  5
1DC
330
1D4
100
AcDbEntity
  8
BLANK-SIZE-2
 62
     0
100
AcDbLine
 10
-0.025
 20
0.0
 30
0.0
 11
-0.0455
 21
0.0
 31
0.0
  0
LINE
  5
1DD
330
1D4
100
AcDbEntity
  8
BLANK-SIZE-2
 62
     0
100
AcDbLine
 10
0.0
 20
-0.025
 30
0.0
 11
0.0
 21
-0.0455
 31
0.0
  0
LINE
  5
1DE
330
1D4
100
AcDbEntity
  8
BLANK-SIZE-2
 62
     0
100
AcDbLine
 10
0.025
 20
0.0
 30
0.0
 11
0.0455
 21
0.0
 31
0.0
  0
ENDBLK
  5
1D6
330
1D4
100
AcDbEntity
  8
0
100
AcDbBlockEnd
  0
BLOCK
  5
1E1
330
1E0
100
AcDbEntity
  8
0
100
AcDbBlockBegin
  2
SW_CENTERMARKSYMBOL_4
 70
     0
 10
0.0
 20
0.0
 30
0.0
  3
SW_CENTERMARKSYMBOL_4
  1
SW_CENTERMARKSYMBOL_4
  0
LINE
  5
1E3
330
1E0
100
AcDbEntity
  8
BLANK-SIZE-2
 62
     0
100
AcDbLine
 10
0.0
 20
0.0
 30
0.0
 11
0.0
 21
0.025
 31
0.0
  0
LINE
  5
1E4
330
1E0
100
AcDbEntity
  8
BLANK-SIZE-2
 62
     0
100
AcDbLine
 10
0.0
 20
0.0
 30
0.0
 11
-0.025
 21
0.0
 31
0.0
  0
LINE
  5
1E5
330
1E0
100
AcDbEntity
  8
BLANK-SIZE-2
 62
     0
100
AcDbLine
 10
0.0
 20
0.0
 30
0.0
 11
0.0
 21
-0.025
 31
0.0
  0
LINE
  5
1E6
330
1E0
100
AcDbEntity
  8
BLANK-SIZE-2
 62
     0
100
AcDbLine
 10
0.0
 20
0.0
 30
0.0
 11
0.025
 21
0.0
 31
0.0
  0
LINE
  5
1E7
330
1E0
100
AcDbEntity
  8
BLANK-SIZE-2
 62
     0
100
AcDbLine
 10
0.0
 20
0.025
 30
0.0
 11
0.0
 21
0.0455
 31
0.0
  0
LINE
  5
1E8
330
1E0
100
AcDbEntity
  8
BLANK-SIZE-2
 62
     0
100
AcDbLine
 10
-0.025
 20
0.0
 30
0.0
 11
-0.0455
 21
0.0
 31
0.0
  0
LINE
  5
1E9
330
1E0
100
AcDbEntity
  8
BLANK-SIZE-2
 62
     0
100
AcDbLine
 10
0.0
 20
-0.025
 30
0.0
 11
0.0
 21
-0.0455
 31
0.0
  0
LINE
  5
1EA
330
1E0
100
AcDbEntity
  8
BLANK-SIZE-2
 62
     0
100
AcDbLine
 10
0.025
 20
0.0
 30
0.0
 11
0.0455
 21
0.0
 31
0.0
  0
ENDBLK
  5
1E2
330
1E0
100
AcDbEntity
  8
0
100
AcDbBlockEnd
  0
BLOCK
  5
1ED
330
1EC
100
AcDbEntity
  8
0
100
AcDbBlockBegin
  2
SW_CENTERMARKSYMBOL_5
 70
     0
 10
0.0
 20
0.0
 30
0.0
  3
SW_CENTERMARKSYMBOL_5
  1
SW_CENTERMARKSYMBOL_5
  0
LINE
  5
1EF
330
1EC
100
AcDbEntity
  8
BLANK-SIZE-2
 62
     0
100
AcDbLine
 10
0.0
 20
0.0
 30
0.0
 11
0.0
 21
0.025
 31
0.0
  0
LINE
  5
1F0
330
1EC
100
AcDbEntity
  8
BLANK-SIZE-2
 62
     0
100
AcDbLine
 10
0.0
 20
0.0
 30
0.0
 11
-0.025
 21
0.0
 31
0.0
  0
LINE
  5
1F1
330
1EC
100
AcDbEntity
  8
BLANK-SIZE-2
 62
     0
100
AcDbLine
 10
0.0
 20
0.0
 30
0.0
 11
0.0
 21
-0.025
 31
0.0
  0
LINE
  5
1F2
330
1EC
100
AcDbEntity
  8
BLANK-SIZE-2
 62
     0
100
AcDbLine
 10
0.0
 20
0.0
 30
0.0
 11
0.025
 21
0.0
 31
0.0
  0
LINE
  5
1F3
330
1EC
100
AcDbEntity
  8
BLANK-SIZE-2
 62
     0
100
AcDbLine
 10
0.0
 20
0.025
 30
0.0
 11
0.0
 21
0.0455
 31
0.0
  0
LINE
  5
1F4
330
1EC
100
AcDbEntity
  8
BLANK-SIZE-2
 62
     0
100
AcDbLine
 10
-0.025
 20
0.0
 30
0.0
 11
-0.0455
 21
0.0
 31
0.0
  0
LINE
  5
1F5
330
1EC
100
AcDbEntity
  8
BLANK-SIZE-2
 62
     0
100
AcDbLine
 10
0.0
 20
-0.025
 30
0.0
 11
0.0
 21
-0.0455
 31
0.0
  0
LINE
  5
1F6
330
1EC
100
AcDbEntity
  8
BLANK-SIZE-2
 62
     0
100
AcDbLine
 10
0.025
 20
0.0
 30
0.0
 11
0.0455
 21
0.0
 31
0.0
  0
ENDBLK
  5
1EE
330
1EC
100
AcDbEntity
  8
0
100
AcDbBlockEnd
  0
BLOCK
  5
265
330
264
100
AcDbEntity
  8
0
100
AcDbBlockBegin
  2
SW_CENTERMARKSYMBOL_6
 70
     0
 10
0.0
 20
0.0
 30
0.0
  3
SW_CENTERMARKSYMBOL_6
  1
SW_CENTERMARKSYMBOL_6
  0
LINE
  5
267
330
264
100
AcDbEntity
  8
BLANK-SIZE-2
 62
     0
100
AcDbLine
 10
0.0
 20
0.0
 30
0.0
 11
0.0
 21
0.025
 31
0.0
  0
LINE
  5
268
330
264
100
AcDbEntity
  8
BLANK-SIZE-2
 62
     0
100
AcDbLine
 10
0.0
 20
0.0
 30
0.0
 11
-0.025
 21
0.0
 31
0.0
  0
LINE
  5
269
330
264
100
AcDbEntity
  8
BLANK-SIZE-2
 62
     0
100
AcDbLine
 10
0.0
 20
0.0
 30
0.0
 11
0.0
 21
-0.025
 31
0.0
  0
LINE
  5
26A
330
264
100
AcDbEntity
  8
BLANK-SIZE-2
 62
     0
100
AcDbLine
 10
0.0
 20
0.0
 30
0.0
 11
0.025
 21
0.0
 31
0.0
  0
LINE
  5
26B
330
264
100
AcDbEntity
  8
BLANK-SIZE-2
 62
     0
100
AcDbLine
 10
0.0
 20
0.025
 30
0.0
 11
0.0
 21
0.0475
 31
0.0
  0
LINE
  5
26C
330
264
100
AcDbEntity
  8
BLANK-SIZE-2
 62
     0
100
AcDbLine
 10
-0.025
 20
0.0
 30
0.0
 11
-0.0475
 21
0.0
 31
0.0
  0
LINE
  5
26D
330
264
100
AcDbEntity
  8
BLANK-SIZE-2
 62
     0
100
AcDbLine
 10
0.0
 20
-0.025
 30
0.0
 11
0.0
 21
-0.0475
 31
0.0
  0
LINE
  5
26E
330
264
100
AcDbEntity
  8
BLANK-SIZE-2
 62
     0
100
AcDbLine
 10
0.025
 20
0.0
 30
0.0
 11
0.0475
 21
0.0
 31
0.0
  0
ENDBLK
  5
266
330
264
100
AcDbEntity
  8
0
100
AcDbBlockEnd
  0
BLOCK
  5
271
330
270
100
AcDbEntity
  8
0
100
AcDbBlockBegin
  2
SW_CENTERMARKSYMBOL_7
 70
     0
 10
0.0
 20
0.0
 30
0.0
  3
SW_CENTERMARKSYMBOL_7
  1
SW_CENTERMARKSYMBOL_7
  0
LINE
  5
273
330
270
100
AcDbEntity
  8
BLANK-SIZE-2
 62
     0
100
AcDbLine
 10
0.0
 20
0.0
 30
0.0
 11
0.0
 21
0.025
 31
0.0
  0
LINE
  5
274
330
270
100
AcDbEntity
  8
BLANK-SIZE-2
 62
     0
100
AcDbLine
 10
0.0
 20
0.0
 30
0.0
 11
-0.025
 21
0.0
 31
0.0
  0
LINE
  5
275
330
270
100
AcDbEntity
  8
BLANK-SIZE-2
 62
     0
100
AcDbLine
 10
0.0
 20
0.0
 30
0.0
 11
0.0
 21
-0.025
 31
0.0
  0
LINE
  5
276
330
270
100
AcDbEntity
  8
BLANK-SIZE-2
 62
     0
100
AcDbLine
 10
0.0
 20
0.0
 30
0.0
 11
0.025
 21
0.0
 31
0.0
  0
LINE
  5
277
330
270
100
AcDbEntity
  8
BLANK-SIZE-2
 62
     0
100
AcDbLine
 10
0.0
 20
0.025
 30
0.0
 11
0.0
 21
0.0475
 31
0.0
  0
LINE
  5
278
330
270
100
AcDbEntity
  8
BLANK-SIZE-2
 62
     0
100
AcDbLine
 10
-0.025
 20
0.0
 30
0.0
 11
-0.0475
 21
0.0
 31
0.0
  0
LINE
  5
279
330
270
100
AcDbEntity
  8
BLANK-SIZE-2
 62
     0
100
AcDbLine
 10
0.0
 20
-0.025
 30
0.0
 11
0.0
 21
-0.0475
 31
0.0
  0
LINE
  5
27A
330
270
100
AcDbEntity
  8
BLANK-SIZE-2
 62
     0
100
AcDbLine
 10
0.025
 20
0.0
 30
0.0
 11
0.0475
 21
0.0
 31
0.0
  0
ENDBLK
  5
272
330
270
100
AcDbEntity
  8
0
100
AcDbBlockEnd
  0
BLOCK
  5
27D
330
27C
100
AcDbEntity
  8
0
100
AcDbBlockBegin
  2
SW_CENTERMARKSYMBOL_8
 70
     0
 10
0.0
 20
0.0
 30
0.0
  3
SW_CENTERMARKSYMBOL_8
  1
SW_CENTERMARKSYMBOL_8
  0
LINE
  5
27F
330
27C
100
AcDbEntity
  8
BLANK-SIZE-2
 62
     0
100
AcDbLine
 10
0.0
 20
0.0
 30
0.0
 11
0.0
 21
0.025
 31
0.0
  0
LINE
  5
280
330
27C
100
AcDbEntity
  8
BLANK-SIZE-2
 62
     0
100
AcDbLine
 10
0.0
 20
0.0
 30
0.0
 11
-0.025
 21
0.0
 31
0.0
  0
LINE
  5
281
330
27C
100
AcDbEntity
  8
BLANK-SIZE-2
 62
     0
100
AcDbLine
 10
0.0
 20
0.0
 30
0.0
 11
0.0
 21
-0.025
 31
0.0
  0
LINE
  5
282
330
27C
100
AcDbEntity
  8
BLANK-SIZE-2
 62
     0
100
AcDbLine
 10
0.0
 20
0.0
 30
0.0
 11
0.025
 21
0.0
 31
0.0
  0
LINE
  5
283
330
27C
100
AcDbEntity
  8
BLANK-SIZE-2
 62
     0
100
AcDbLine
 10
0.0
 20
0.025
 30
0.0
 11
0.0
 21
0.0475
 31
0.0
  0
LINE
  5
284
330
27C
100
AcDbEntity
  8
BLANK-SIZE-2
 62
     0
100
AcDbLine
 10
-0.025
 20
0.0
 30
0.0
 11
-0.0475
 21
0.0
 31
0.0
  0
LINE
  5
285
330
27C
100
AcDbEntity
  8
BLANK-SIZE-2
 62
     0
100
AcDbLine
 10
0.0
 20
-0.025
 30
0.0
 11
0.0
 21
-0.0475
 31
0.0
  0
LINE
  5
286
330
27C
100
AcDbEntity
  8
BLANK-SIZE-2
 62
     0
100
AcDbLine
 10
0.025
 20
0.0
 30
0.0
 11
0.0475
 21
0.0
 31
0.0
  0
ENDBLK
  5
27E
330
27C
100
AcDbEntity
  8
0
100
AcDbBlockEnd
  0
BLOCK
  5
289
330
288
100
AcDbEntity
  8
0
100
AcDbBlockBegin
  2
SW_CENTERMARKSYMBOL_9
 70
     0
 10
0.0
 20
0.0
 30
0.0
  3
SW_CENTERMARKSYMBOL_9
  1
SW_CENTERMARKSYMBOL_9
  0
LINE
  5
28B
330
288
100
AcDbEntity
  8
BLANK-SIZE-2
 62
     0
100
AcDbLine
 10
0.0
 20
0.0
 30
0.0
 11
0.0
 21
0.025
 31
0.0
  0
LINE
  5
28C
330
288
100
AcDbEntity
  8
BLANK-SIZE-2
 62
     0
100
AcDbLine
 10
0.0
 20
0.0
 30
0.0
 11
-0.025
 21
0.0
 31
0.0
  0
LINE
  5
28D
330
288
100
AcDbEntity
  8
BLANK-SIZE-2
 62
     0
100
AcDbLine
 10
0.0
 20
0.0
 30
0.0
 11
0.0
 21
-0.025
 31
0.0
  0
LINE
  5
28E
330
288
100
AcDbEntity
  8
BLANK-SIZE-2
 62
     0
100
AcDbLine
 10
0.0
 20
0.0
 30
0.0
 11
0.025
 21
0.0
 31
0.0
  0
LINE
  5
28F
330
288
100
AcDbEntity
  8
BLANK-SIZE-2
 62
     0
100
AcDbLine
 10
0.0
 20
0.025
 30
0.0
 11
0.0
 21
0.0475
 31
0.0
  0
LINE
  5
290
330
288
100
AcDbEntity
  8
BLANK-SIZE-2
 62
     0
100
AcDbLine
 10
-0.025
 20
0.0
 30
0.0
 11
-0.0475
 21
0.0
 31
0.0
  0
LINE
  5
291
330
288
100
AcDbEntity
  8
BLANK-SIZE-2
 62
     0
100
AcDbLine
 10
0.0
 20
-0.025
 30
0.0
 11
0.0
 21
-0.0475
 31
0.0
  0
LINE
  5
292
330
288
100
AcDbEntity
  8
BLANK-SIZE-2
 62
     0
100
AcDbLine
 10
0.025
 20
0.0
 30
0.0
 11
0.0475
 21
0.0
 31
0.0
  0
ENDBLK
  5
28A
330
288
100
AcDbEntity
  8
0
100
AcDbBlockEnd
  0
ENDSEC
  0
SECTION
  2
ENTITIES
  0
LINE
  5
88
330
1F
100
AcDbEntity
  8
REV-1
 62
     7
100
AcDbLine
 10
4.202
 20
2.4018050662
 30
0.0
 11
0.25
 21
2.4018050662
 31
0.0
  0
LINE
  5
89
330
1F
100
AcDbEntity
  8
REV-1
100
AcDbLine
 10
0.5412821291
 20
2.2143050662
 30
0.0
 11
0.5412821291
 21
2.4018050662
 31
0.0
  0
LINE
  5
8A
330
1F
100
AcDbEntity
  8
REV-1
100
AcDbLine
 10
1.102
 20
2.2143050662
 30
0.0
 11
1.102
 21
2.4018050662
 31
0.0
  0
LINE
  5
8B
330
1F
100
AcDbEntity
  8
REV-1
100
AcDbLine
 10
1.702
 20
2.2143050662
 30
0.0
 11
1.702
 21
2.4018050662
 31
0.0
  0
LINE
  5
8C
330
1F
100
AcDbEntity
  8
REV-1
100
AcDbLine
 10
3.754
 20
2.2143050662
 30
0.0
 11
3.754
 21
2.4018050662
 31
0.0
  0
LINE
  5
8D
330
1F
100
AcDbEntity
  8
REV-1
100
AcDbLine
 10
4.202
 20
2.4018050662
 30
0.0
 11
4.202
 21
2.534634198
 31
0.0
  0
LINE
  5
8E
330
1F
100
AcDbEntity
  8
REV-2
 62
     7
100
AcDbLine
 10
4.202
 20
2.5829623634
 30
0.0
 11
0.25
 21
2.5829623634
 31
0.0
  0
LINE
  5
8F
330
1F
100
AcDbEntity
  8
REV-2
100
AcDbLine
 10
3.754
 20
2.3954623634
 30
0.0
 11
3.754
 21
2.5829623634
 31
0.0
  0
LINE
  5
90
330
1F
100
AcDbEntity
  8
STAMP-AREA
100
AcDbLine
 10
0.25
 20
9.1538174151
 30
0.0
 11
4.5074336972
 21
9.1538174151
 31
0.0
  0
LINE
  5
91
330
1F
100
AcDbEntity
  8
REV-2
100
AcDbLine
 10
1.702
 20
2.3954623634
 30
0.0
 11
1.702
 21
2.5829623634
 31
0.0
  0
LINE
  5
92
330
1F
100
AcDbEntity
  8
REV-2
100
AcDbLine
 10
0.5412821291
 20
2.3954623634
 30
0.0
 11
0.5412821291
 21
2.5829623634
 31
0.0
  0
LINE
  5
93
330
1F
100
AcDbEntity
  8
REV-2
100
AcDbLine
 10
1.102
 20
2.3954623634
 30
0.0
 11
1.102
 21
2.5829623634
 31
0.0
  0
LINE
  5
94
330
1F
100
AcDbEntity
  8
STAMP-AREA
100
AcDbLine
 10
4.5074336972
 20
9.1538174151
 30
0.0
 11
4.5074336972
 21
10.7563677639
 31
0.0
  0
LINE
  5
95
330
1F
100
AcDbEntity
  8
REV-3
100
AcDbLine
 10
3.754
 20
2.5766196606
 30
0.0
 11
3.754
 21
2.7641196606
 31
0.0
  0
LINE
  5
96
330
1F
100
AcDbEntity
  8
REV-3
100
AcDbLine
 10
0.5412821291
 20
2.5766196606
 30
0.0
 11
0.5412821291
 21
2.7641196606
 31
0.0
  0
LINE
  5
97
330
1F
100
AcDbEntity
  8
REV-3
100
AcDbLine
 10
1.102
 20
2.5766196606
 30
0.0
 11
1.102
 21
2.7641196606
 31
0.0
  0
LINE
  5
98
330
1F
100
AcDbEntity
  8
REV-3
100
AcDbLine
 10
0.25
 20
2.7641196606
 30
0.0
 11
4.202
 21
2.7641196606
 31
0.0
  0
LINE
  5
99
330
1F
100
AcDbEntity
  8
REV-3
100
AcDbLine
 10
1.702
 20
2.5766196606
 30
0.0
 11
1.702
 21
2.7641196606
 31
0.0
  0
LINE
  5
9A
330
1F
100
AcDbEntity
  8
REV-2
100
AcDbLine
 10
4.202
 20
2.4018050662
 30
0.0
 11
4.202
 21
2.5829623634
 31
0.0
  0
LINE
  5
9B
330
1F
100
AcDbEntity
  8
REV-3
100
AcDbLine
 10
4.202
 20
2.7641196606
 30
0.0
 11
4.202
 21
2.5829623634
 31
0.0
  0
LINE
  5
9C
330
1F
100
AcDbEntity
  8
BLANK-SIZE-2
100
AcDbLine
 10
0.25
 20
10.2935214866
 30
0.0
 11
1.9802740321
 21
10.2935214866
 31
0.0
  0
LINE
  5
9D
330
1F
100
AcDbEntity
  8
BLANK-SIZE-2
100
AcDbLine
 10
1.9802740321
 20
10.2935214866
 30
0.0
 11
1.9802740321
 21
10.5249446252
 31
0.0
  0
LINE
  5
9E
330
1F
100
AcDbEntity
  8
BLANK-SIZE-2
100
AcDbLine
 10
1.9802740321
 20
10.2935214866
 30
0.0
 11
2.2906228045
 21
10.2935214866
 31
0.0
  0
LINE
  5
9F
330
1F
100
AcDbEntity
  8
BLANK-SIZE-2
100
AcDbLine
 10
2.2906228045
 20
10.2935214866
 30
0.0
 11
2.2906228045
 21
10.5249446252
 31
0.0
  0
LINE
  5
A0
330
1F
100
AcDbEntity
  8
BLANK-SIZE-3
100
AcDbLine
 10
0.25
 20
10.0620983479
 30
0.0
 11
1.9802740321
 21
10.0620983479
 31
0.0
  0
LINE
  5
A1
330
1F
100
AcDbEntity
  8
BLANK-SIZE-3
100
AcDbLine
 10
1.9802740321
 20
10.0620983479
 30
0.0
 11
1.9802740321
 21
10.2935214866
 31
0.0
  0
LINE
  5
A2
330
1F
100
AcDbEntity
  8
BLANK-SIZE-3
100
AcDbLine
 10
1.9802740321
 20
10.0620983479
 30
0.0
 11
2.2906228045
 21
10.0620983479
 31
0.0
  0
LINE
  5
A3
330
1F
100
AcDbEntity
  8
BLANK-SIZE-3
100
AcDbLine
 10
2.2906228045
 20
10.0620983479
 30
0.0
 11
2.2906228045
 21
10.2935214866
 31
0.0
  0
LINE
  5
A4
330
1F
100
AcDbEntity
  8
BLANK-SIZE-4
100
AcDbLine
 10
0.25
 20
9.8306752093
 30
0.0
 11
1.9802740321
 21
9.8306752093
 31
0.0
  0
LINE
  5
A5
330
1F
100
AcDbEntity
  8
BLANK-SIZE-4
100
AcDbLine
 10
1.9802740321
 20
9.8306752093
 30
0.0
 11
1.9802740321
 21
10.0620983479
 31
0.0
  0
LINE
  5
A6
330
1F
100
AcDbEntity
  8
BLANK-SIZE-4
100
AcDbLine
 10
1.9802740321
 20
9.8306752093
 30
0.0
 11
2.2906228045
 21
9.8306752093
 31
0.0
  0
LINE
  5
A7
330
1F
100
AcDbEntity
  8
BLANK-SIZE-4
100
AcDbLine
 10
2.2906228045
 20
9.8306752093
 30
0.0
 11
2.2906228045
 21
10.0620983479
 31
0.0
  0
LINE
  5
A8
330
1F
100
AcDbEntity
  8
BLANK-SIZE-5
100
AcDbLine
 10
0.25
 20
9.5992520706
 30
0.0
 11
1.9802740321
 21
9.5992520706
 31
0.0
  0
LINE
  5
A9
330
1F
100
AcDbEntity
  8
BLANK-SIZE-5
100
AcDbLine
 10
1.9802740321
 20
9.5992520706
 30
0.0
 11
1.9802740321
 21
9.8306752093
 31
0.0
  0
LINE
  5
AA
330
1F
100
AcDbEntity
  8
BLANK-SIZE-5
100
AcDbLine
 10
1.9802740321
 20
9.5992520706
 30
0.0
 11
2.2906228045
 21
9.5992520706
 31
0.0
  0
LINE
  5
AB
330
1F
100
AcDbEntity
  8
BLANK-SIZE-5
100
AcDbLine
 10
2.2906228045
 20
9.5992520706
 30
0.0
 11
2.2906228045
 21
9.8306752093
 31
0.0
  0
MTEXT
  5
AD
330
1F
100
AcDbEntity
  8
REV-1
100
AcDbMText
 10
0.3976847055
 20
2.3453210917
 30
0.0
 40
0.072
 41
0.0
 71
     2
 72
     1
  1
A
  7
SLDTEXTSTYLE0
 73
     1
 44
1.0
  0
MTEXT
  5
AE
330
1F
100
AcDbEntity
  8
REV-2
100
AcDbMText
 10
0.3984784563
 20
2.5264783889
 30
0.0
 40
0.072
 41
0.0
 71
     2
 72
     1
  1
B
  7
SLDTEXTSTYLE0
 73
     1
 44
1.0
  0
MTEXT
  5
AF
330
1F
100
AcDbEntity
  8
REV-3
100
AcDbMText
 10
0.3977972056
 20
2.7076356861
 30
0.0
 40
0.072
 41
0.0
 71
     2
 72
     1
  1
C
  7
SLDTEXTSTYLE0
 73
     1
 44
1.0
  0
MTEXT
  5
B0
330
1F
100
AcDbEntity
  8
STAMP-AREA
100
AcDbMText
 10
1.1373617204
 20
10.113025596
 30
0.0
 40
0.1666666667
 41
0.0
 71
     1
 72
     1
  1
STAMP DETAIL AREA
  7
SLDTEXTSTYLE0
 73
     1
 44
1.0
  0
INSERT
  5
B9
330
1F
100
AcDbEntity
  8
TOP_MOUNT_PAINT
100
AcDbBlockReference
  2
SW_NOTE_0
 10
4.3555985743
 20
2.6546366237
 30
0.0
  0
MTEXT
  5
BA
330
1F
100
AcDbEntity
  8
BLANK-SIZE-2
100
AcDbMText
 10
2.0971479706
 20
10.463222502
 30
0.0
 40
0.1041666667
 41
0.0
 71
     1
 72
     1
  1
--
  7
SLDTEXTSTYLE1
 73
     1
 44
1.0
  0
MTEXT
  5
BB
330
1F
100
AcDbEntity
  8
BLANK-SIZE-2
100
AcDbMText
 10
0.3378807908
 20
10.463222502
 30
0.0
 40
0.1041666667
 41
0.0
 71
     1
 72
     1
  1
--
  7
SLDTEXTSTYLE1
 73
     1
 44
1.0
  0
MTEXT
  5
BC
330
1F
100
AcDbEntity
  8
BLANK-SIZE-3
100
AcDbMText
 10
0.3378807908
 20
10.2317993633
 30
0.0
 40
0.1041666667
 41
0.0
 71
     1
 72
     1
  1
--
  7
SLDTEXTSTYLE1
 73
     1
 44
1.0
  0
MTEXT
  5
BD
330
1F
100
AcDbEntity
  8
BLANK-SIZE-3
100
AcDbMText
 10
2.0971479706
 20
10.2317993633
 30
0.0
 40
0.1041666667
 41
0.0
 71
     1
 72
     1
  1
--
  7
SLDTEXTSTYLE1
 73
     1
 44
1.0
  0
MTEXT
  5
BE
330
1F
100
AcDbEntity
  8
BLANK-SIZE-4
100
AcDbMText
 10
2.0971479706
 20
10.0003762247
 30
0.0
 40
0.1041666667
 41
0.0
 71
     1
 72
     1
  1
--
  7
SLDTEXTSTYLE1
 73
     1
 44
1.0
  0
MTEXT
  5
BF
330
1F
100
AcDbEntity
  8
BLANK-SIZE-4
100
AcDbMText
 10
0.3378807908
 20
10.0003762247
 30
0.0
 40
0.1041666667
 41
0.0
 71
     1
 72
     1
  1
--
  7
SLDTEXTSTYLE1
 73
     1
 44
1.0
  0
MTEXT
  5
C0
330
1F
100
AcDbEntity
  8
BLANK-SIZE-5
100
AcDbMText
 10
0.3378807908
 20
9.768953086
 30
0.0
 40
0.1041666667
 41
0.0
 71
     1
 72
     1
  1
--
  7
SLDTEXTSTYLE1
 73
     1
 44
1.0
  0
MTEXT
  5
C1
330
1F
100
AcDbEntity
  8
BLANK-SIZE-5
100
AcDbMText
 10
2.0971479706
 20
9.768953086
 30
0.0
 40
0.1041666667
 41
0.0
 71
     1
 72
     1
  1
--
  7
SLDTEXTSTYLE1
 73
     1
 44
1.0
  0
MTEXT
  5
C2
330
1F
100
AcDbEntity
  8
BLANK-SIZE-2
100
AcDbMText
 10
0.7735977297
 20
0.9124839756
 30
0.0
 40
0.1041666667
 41
0.0
 71
     1
 72
     1
  1
--
  7
SLDTEXTSTYLE1
 73
     1
 44
1.0
  0
LINE
  5
C3
330
1F
100
AcDbEntity
  8
0
  6
Continuous
 62
     7
370
    30
100
AcDbLine
 10
4.4486114549
 20
4.552975416
 30
0.0
 11
4.4311114549
 21
4.552975416
 31
0.0
  0
LINE
  5
C4
330
1F
100
AcDbEntity
  8
0
  6
Continuous
 62
     7
370
    30
100
AcDbLine
 10
4.4311114549
 20
4.552975416
 30
0.0
 11
4.4311114549
 21
4.562632197
 31
0.0
  0
LINE
  5
C5
330
1F
100
AcDbEntity
  8
0
  6
Continuous
 62
     7
370
    30
100
AcDbLine
 10
4.4311114549
 20
4.562632197
 30
0.0
 11
4.4486114549
 21
4.562632197
 31
0.0
  0
LINE
  5
C6
330
1F
100
AcDbEntity
  8
0
  6
Continuous
 62
     7
370
    30
100
AcDbLine
 10
4.4486114549
 20
4.562632197
 30
0.0
 11
4.4486114549
 21
4.552975416
 31
0.0
  0
LINE
  5
C7
330
1F
100
AcDbEntity
  8
0
  6
Continuous
 62
     7
370
    30
100
AcDbLine
 10
4.4311114549
 20
3.0460499297
 30
0.0
 11
4.4486114549
 21
3.0460499297
 31
0.0
  0
LINE
  5
C8
330
1F
100
AcDbEntity
  8
0
  6
Continuous
 62
     7
370
    30
100
AcDbLine
 10
4.4486114549
 20
4.552975416
 30
0.0
 11
4.4486114549
 21
3.0460499297
 31
0.0
  0
LINE
  5
C9
330
1F
100
AcDbEntity
  8
0
  6
Continuous
 62
     7
370
    30
100
AcDbLine
 10
4.4311114549
 20
4.552975416
 30
0.0
 11
4.4311114549
 21
3.0460499297
 31
0.0
  0
ARC
  5
CA
330
1F
100
AcDbEntity
  8
0
  6
Continuous
 62
     7
370
    30
100
AcDbCircle
 10
4.4136114549
 20
3.0460499297
 30
0.0
 40
0.0350000000000001
100
AcDbArc
 50
270.0
 51
0.0
  0
LINE
  5
CB
330
1F
100
AcDbEntity
  8
0
  6
Continuous
 62
     7
370
    30
100
AcDbLine
 10
4.4136114549
 20
3.0285499297
 30
0.0
 11
4.4136114549
 21
3.0110499297
 31
0.0
  0
ARC
  5
CC
330
1F
100
AcDbEntity
  8
0
  6
Continuous
 62
     7
370
    30
100
AcDbCircle
 10
4.4136114549
 20
3.0460499297
 30
0.0
 40
0.0175000000000001
100
AcDbArc
 50
270.0
 51
0.0
  0
LINE
  5
CD
330
1F
100
AcDbEntity
  8
0
  6
Continuous
 62
     7
370
    30
100
AcDbLine
 10
3.9173614549
 20
3.0110499297
 30
0.0
 11
4.4136114549
 21
3.0110499297
 31
0.0
  0
LINE
  5
CE
330
1F
100
AcDbEntity
  8
0
  6
Continuous
 62
     7
370
    30
100
AcDbLine
 10
3.9173614549
 20
3.0285499297
 30
0.0
 11
3.9173614549
 21
3.0110499297
 31
0.0
  0
LINE
  5
CF
330
1F
100
AcDbEntity
  8
0
  6
Continuous
 62
     7
370
    30
100
AcDbLine
 10
3.9173614549
 20
3.0285499297
 30
0.0
 11
4.4136114549
 21
3.0285499297
 31
0.0
  0
ARC
  5
D0
330
1F
100
AcDbEntity
  8
0
  6
Continuous
 62
     7
370
    30
100
AcDbCircle
 10
3.9173614549
 20
3.0460499297
 30
0.0
 40
0.0350000000000001
100
AcDbArc
 50
180.0
 51
270.0
  0
LINE
  5
D1
330
1F
100
AcDbEntity
  8
0
  6
Continuous
 62
     7
370
    30
100
AcDbLine
 10
3.8998614549
 20
3.0460499297
 30
0.0
 11
3.8823614549
 21
3.0460499297
 31
0.0
  0
ARC
  5
D2
330
1F
100
AcDbEntity
  8
0
  6
Continuous
 62
     7
370
    30
100
AcDbCircle
 10
3.9173614549
 20
3.0460499297
 30
0.0
 40
0.0175000000000001
100
AcDbArc
 50
180.0
 51
270.0
  0
LINE
  5
D3
330
1F
100
AcDbEntity
  8
0
  6
Continuous
 62
     7
370
    30
100
AcDbLine
 10
3.8823614549
 20
4.562632197
 30
0.0
 11
3.8998614549
 21
4.562632197
 31
0.0
  0
LINE
  5
D4
330
1F
100
AcDbEntity
  8
0
  6
Continuous
 62
     7
370
    30
100
AcDbLine
 10
3.8998614549
 20
4.562632197
 30
0.0
 11
3.8998614549
 21
4.552975416
 31
0.0
  0
LINE
  5
D5
330
1F
100
AcDbEntity
  8
0
  6
Continuous
 62
     7
370
    30
100
AcDbLine
 10
3.8998614549
 20
4.552975416
 30
0.0
 11
3.8823614549
 21
4.552975416
 31
0.0
  0
LINE
  5
D6
330
1F
100
AcDbEntity
  8
0
  6
Continuous
 62
     7
370
    30
100
AcDbLine
 10
3.8823614549
 20
4.552975416
 30
0.0
 11
3.8823614549
 21
4.562632197
 31
0.0
  0
LINE
  5
D7
330
1F
100
AcDbEntity
  8
0
  6
Continuous
 62
     7
370
    30
100
AcDbLine
 10
3.8998614549
 20
3.0460499297
 30
0.0
 11
3.8998614549
 21
4.552975416
 31
0.0
  0
LINE
  5
D8
330
1F
100
AcDbEntity
  8
0
  6
Continuous
 62
     7
370
    30
100
AcDbLine
 10
3.8823614549
 20
3.0460499297
 30
0.0
 11
3.8823614549
 21
4.552975416
 31
0.0
  0
LINE
  5
D9
330
1F
100
AcDbEntity
  8
0
  6
Continuous
 62
     7
370
    30
100
AcDbLine
 10
4.4486114549
 20
5.7863317108
 30
0.0
 11
4.4311114549
 21
5.7863317108
 31
0.0
  0
LINE
  5
DA
330
1F
100
AcDbEntity
  8
0
  6
Continuous
 62
     7
370
    30
100
AcDbLine
 10
4.4486114549
 20
4.562632197
 30
0.0
 11
4.4486114549
 21
5.7863317108
 31
0.0
  0
LINE
  5
DB
330
1F
100
AcDbEntity
  8
0
  6
Continuous
 62
     7
370
    30
100
AcDbLine
 10
4.4311114549
 20
4.562632197
 30
0.0
 11
4.4311114549
 21
5.7863317108
 31
0.0
  0
LINE
  5
DC
330
1F
100
AcDbEntity
  8
0
  6
Continuous
 62
     7
370
    30
100
AcDbLine
 10
3.8998614549
 20
5.7863317108
 30
0.0
 11
3.8823614549
 21
5.7863317108
 31
0.0
  0
LINE
  5
DD
330
1F
100
AcDbEntity
  8
0
  6
Continuous
 62
     7
370
    30
100
AcDbLine
 10
3.8998614549
 20
5.7863317108
 30
0.0
 11
3.8998614549
 21
4.562632197
 31
0.0
  0
LINE
  5
DE
330
1F
100
AcDbEntity
  8
0
  6
Continuous
 62
     7
370
    30
100
AcDbLine
 10
3.8823614549
 20
5.7863317108
 30
0.0
 11
3.8823614549
 21
4.562632197
 31
0.0
  0
LINE
  5
DF
330
1F
100
AcDbEntity
  8
0
  6
Continuous
 62
     7
370
    30
100
AcDbLine
 10
3.8823614549
 20
5.8079249297
 30
0.0
 11
3.8998614549
 21
5.8079249297
 31
0.0
  0
LINE
  5
E0
330
1F
100
AcDbEntity
  8
0
  6
Continuous
 62
     7
370
    30
100
AcDbLine
 10
3.8998614549
 20
5.8079249297
 30
0.0
 11
3.8998614549
 21
5.7863317108
 31
0.0
  0
LINE
  5
E1
330
1F
100
AcDbEntity
  8
0
  6
Continuous
 62
     7
370
    30
100
AcDbLine
 10
3.8823614549
 20
5.7863317108
 30
0.0
 11
3.8823614549
 21
5.8079249297
 31
0.0
  0
LINE
  5
E2
330
1F
100
AcDbEntity
  8
0
  6
Continuous
 62
     7
370
    30
100
AcDbLine
 10
4.4311114549
 20
5.8079249297
 30
0.0
 11
4.4486114549
 21
5.8079249297
 31
0.0
  0
LINE
  5
E3
330
1F
100
AcDbEntity
  8
0
  6
Continuous
 62
     7
370
    30
100
AcDbLine
 10
4.4486114549
 20
5.8079249297
 30
0.0
 11
4.4486114549
 21
5.7863317108
 31
0.0
  0
LINE
  5
E4
330
1F
100
AcDbEntity
  8
0
  6
Continuous
 62
     7
370
    30
100
AcDbLine
 10
4.4311114549
 20
5.7863317108
 30
0.0
 11
4.4311114549
 21
5.8079249297
 31
0.0
  0
LINE
  5
E5
330
1F
100
AcDbEntity
  8
0
  6
Continuous
 62
     7
370
    30
100
AcDbLine
 10
4.4311114549
 20
3.1535499297
 30
0.0
 11
4.4155392871
 21
3.1535499297
 31
0.0
  0
SPLINE
  5
E6
330
1F
100
AcDbEntity
  8
0
  6
Continuous
 62
     7
370
    30
100
AcDbSpline
210
0.0
220
0.0
230
1.0
 70
     8
 71
     3
 72
     8
 73
     4
 74
     0
 42
0.000000001
 43
0.00000001
 40
0.0
 40
0.0
 40
0.0
 40
0.0
 40
1.0
 40
1.0
 40
1.0
 40
1.0
 10
4.415539287098608
 20
3.153549929723751
 30
0.0
 10
4.414899285724526
 20
3.153589011593266
 30
0.0
 10
4.41425537542471
 20
3.153628092939822
 30
0.0
 10
4.413611454933499
 20
3.153667174809338
 30
0.0
  0
LINE
  5
E7
330
1F
100
AcDbEntity
  8
0
  6
Continuous
 62
     7
370
    30
100
AcDbLine
 10
4.4136114549
 20
5.8079249297
 30
0.0
 11
4.4136114549
 21
3.1536671748
 31
0.0
  0
LINE
  5
E8
330
1F
100
AcDbEntity
  8
0
  6
Continuous
 62
     7
370
    30
100
AcDbLine
 10
4.4136114549
 20
5.8079249297
 30
0.0
 11
4.4311114549
 21
5.8079249297
 31
0.0
  0
LINE
  5
E9
330
1F
100
AcDbEntity
  8
0
  6
Continuous
 62
     7
370
    30
100
AcDbLine
 10
3.8998614549
 20
5.8079249297
 30
0.0
 11
3.9173614549
 21
5.8079249297
 31
0.0
  0
LINE
  5
EA
330
1F
100
AcDbEntity
  8
0
  6
Continuous
 62
     7
370
    30
100
AcDbLine
 10
3.9173614549
 20
3.1536671748
 30
0.0
 11
3.9173614549
 21
5.8079249297
 31
0.0
  0
SPLINE
  5
EB
330
1F
100
AcDbEntity
  8
0
  6
Continuous
 62
     7
370
    30
100
AcDbSpline
210
0.0
220
0.0
230
1.0
 70
     8
 71
     3
 72
     8
 73
     4
 74
     0
 42
0.000000001
 43
0.00000001
 40
0.0
 40
0.0
 40
0.0
 40
0.0
 40
1.0
 40
1.0
 40
1.0
 40
1.0
 10
3.917361454933499
 20
3.15366717480934
 30
0.0
 10
3.916717534442289
 20
3.153628092939826
 30
0.0
 10
3.916073624142473
 20
3.153589011593269
 30
0.0
 10
3.915433622768389
 20
3.153549929723754
 30
0.0
  0
LINE
  5
EC
330
1F
100
AcDbEntity
  8
0
  6
Continuous
 62
     7
370
    30
100
AcDbLine
 10
3.9154336228
 20
3.1535499297
 30
0.0
 11
3.8998614549
 21
3.1535499297
 31
0.0
  0
ARC
  5
ED
330
1F
100
AcDbEntity
  8
0
  6
Continuous
 62
     7
370
    30
100
AcDbCircle
 10
3.9146570009
 20
3.1847999297
 30
0.0
 40
0.0312500000000001
100
AcDbArc
 50
274.9647321222
 51
342.0
  0
LINE
  5
EE
330
1F
100
AcDbEntity
  8
0
  6
Continuous
 62
     7
370
    30
100
AcDbLine
 10
3.9173614549
 20
5.8079249297
 30
0.0
 11
4.1248614549
 21
5.8079249297
 31
0.0
  0
LINE
  5
EF
330
1F
100
AcDbEntity
  8
0
  6
Continuous
 62
     7
370
    30
100
AcDbLine
 10
4.1206747488
 20
4.1820927851
 30
0.0
 11
4.1248614549
 21
4.1748411974
 31
0.0
  0
ARC
  5
F0
330
1F
100
AcDbEntity
  8
0
  6
Continuous
 62
     7
370
    30
100
AcDbCircle
 10
4.0936114549
 20
4.1664677851
 30
0.0
 40
0.03125
100
AcDbArc
 50
30.0
 51
180.0
  0
LINE
  5
F1
330
1F
100
AcDbEntity
  8
0
  6
Continuous
 62
     7
370
    30
100
AcDbLine
 10
4.0623614549
 20
4.1664677851
 30
0.0
 11
4.0623614549
 21
3.5432098856
 31
0.0
  0
ARC
  5
F2
330
1F
100
AcDbEntity
  8
0
  6
Continuous
 62
     7
370
    30
100
AcDbCircle
 10
4.0311114549
 20
3.5432098856
 30
0.0
 40
0.0312500000000001
100
AcDbArc
 50
342.0
 51
0.0
  0
LINE
  5
F3
330
1F
100
AcDbEntity
  8
0
  6
Continuous
 62
     7
370
    30
100
AcDbLine
 10
3.9443775171
 20
3.1751431486
 30
0.0
 11
4.0608319711
 21
3.5335531046
 31
0.0
  0
SPLINE
  5
F4
330
1F
100
AcDbEntity
  8
0
  6
Continuous
 62
     7
370
    30
100
AcDbSpline
210
0.0
220
0.0
230
1.0
 70
     8
 71
     3
 72
    14
 73
    10
 74
     0
 42
0.000000001
 43
0.00000001
 40
0.0
 40
0.0
 40
0.0
 40
0.0
 40
0.25
 40
0.25
 40
0.5
 40
0.5
 40
0.75
 40
0.75
 40
1.0
 40
1.0
 40
1.0
 40
1.0
 10
4.14236145493349
 20
4.108184070774302
 30
0.0
 10
4.14236145493349
 20
4.11373883132727
 30
0.0
 10
4.141905976775186
 20
4.119293591880237
 30
0.0
 10
4.140152716729689
 20
4.130403112986172
 30
0.0
 10
4.138855624675458
 20
4.13595787353914
 30
0.0
 10
4.135616022533051
 20
4.147067394645075
 30
0.0
 10
4.133674787089981
 20
4.152622155198042
 30
0.0
 10
4.129442042909776
 20
4.163731676303978
 30
0.0
 10
4.127152199576732
 20
4.169286436856945
 30
0.0
 10
4.124861454933488
 20
4.174841197409912
 30
0.0
  0
SPLINE
  5
F5
330
1F
100
AcDbEntity
  8
0
  6
Continuous
 62
     7
370
    30
100
AcDbSpline
210
0.0
220
0.0
230
1.0
 70
     8
 71
     3
 72
    14
 73
    10
 74
     0
 42
0.000000001
 43
0.00000001
 40
0.0
 40
0.0
 40
0.0
 40
0.0
 40
0.25
 40
0.25
 40
0.5
 40
0.5
 40
0.75
 40
0.75
 40
1.0
 40
1.0
 40
1.0
 40
1.0
 10
4.15986145493349
 20
4.108184070774302
 30
0.0
 10
4.15986145493349
 20
4.113739236796177
 30
0.0
 10
4.158950498616881
 20
4.119293591880237
 30
0.0
 10
4.155443978525889
 20
4.130403112986172
 30
0.0
 10
4.152849794417426
 20
4.13595787353914
 30
0.0
 10
4.146370590132611
 20
4.147067394645075
 30
0.0
 10
4.14248811924647
 20
4.152622155198042
 30
0.0
 10
4.134022630886063
 20
4.163731676303978
 30
0.0
 10
4.129443278645092
 20
4.169286031388037
 30
0.0
 10
4.124861454933487
 20
4.174841197409912
 30
0.0
  0
LINE
  5
F6
330
1F
100
AcDbEntity
  8
0
  6
Continuous
 62
     7
370
    30
100
AcDbLine
 10
4.1423614549
 20
4.1081840708
 30
0.0
 11
4.1598614549
 21
4.1081840708
 31
0.0
  0
LINE
  5
F7
330
1F
100
AcDbEntity
  8
0
  6
Continuous
 62
     7
370
    30
100
AcDbLine
 10
4.1248614549
 20
5.8079249297
 30
0.0
 11
4.1598614549
 21
5.8079249297
 31
0.0
  0
LINE
  5
F8
330
1F
100
AcDbEntity
  8
0
  6
Continuous
 62
     7
370
    30
100
AcDbLine
 10
4.1598614549
 20
4.1081840708
 30
0.0
 11
4.1598614549
 21
5.8079249297
 31
0.0
  0
ARC
  5
F9
330
1F
100
AcDbEntity
  8
0
  6
Continuous
 62
     7
370
    30
100
AcDbCircle
 10
4.2373614549
 20
4.1977177851
 30
0.0
 40
0.0312500000000003
100
AcDbArc
 50
0.0
 51
150.0
  0
LINE
  5
FA
330
1F
100
AcDbEntity
  8
0
  6
Continuous
 62
     7
370
    30
100
AcDbLine
 10
4.2061114549
 20
4.2060911974
 30
0.0
 11
4.2102981611
 21
4.2133427851
 31
0.0
  0
LINE
  5
FB
330
1F
100
AcDbEntity
  8
0
  6
Continuous
 62
     7
370
    30
100
AcDbLine
 10
4.2061114549
 20
5.8079249297
 30
0.0
 11
4.4136114549
 21
5.8079249297
 31
0.0
  0
ARC
  5
FC
330
1F
100
AcDbEntity
  8
0
  6
Continuous
 62
     7
370
    30
100
AcDbCircle
 10
4.4163159089
 20
3.1847999297
 30
0.0
 40
0.0312500000000003
100
AcDbArc
 50
198.0
 51
265.0352678778
  0
LINE
  5
FD
330
1F
100
AcDbEntity
  8
0
  6
Continuous
 62
     7
370
    30
100
AcDbLine
 10
4.2701409388
 20
3.5335531046
 30
0.0
 11
4.3865953928
 21
3.1751431486
 31
0.0
  0
ARC
  5
FE
330
1F
100
AcDbEntity
  8
0
  6
Continuous
 62
     7
370
    30
100
AcDbCircle
 10
4.2998614549
 20
3.5432098856
 30
0.0
 40
0.03125
100
AcDbArc
 50
180.0
 51
198.0
  0
LINE
  5
FF
330
1F
100
AcDbEntity
  8
0
  6
Continuous
 62
     7
370
    30
100
AcDbLine
 10
4.2686114549
 20
3.5432098856
 30
0.0
 11
4.2686114549
 21
4.1977177851
 31
0.0
  0
SPLINE
  5
100
330
1F
100
AcDbEntity
  8
0
  6
Continuous
 62
     7
370
    30
100
AcDbSpline
210
0.0
220
0.0
230
1.0
 70
     8
 71
     3
 72
    14
 73
    10
 74
     0
 42
0.000000001
 43
0.00000001
 40
0.0
 40
0.0
 40
0.0
 40
0.0
 40
0.25
 40
0.25
 40
0.5
 40
0.5
 40
0.75
 40
0.75
 40
1.0
 40
1.0
 40
1.0
 40
1.0
 10
4.206111454933509
 20
4.206091197409905
 30
0.0
 10
4.203820710290267
 20
4.200536436856938
 30
0.0
 10
4.201530866957222
 20
4.19498167630397
 30
0.0
 10
4.197298122777018
 20
4.183872155198036
 30
0.0
 10
4.195356887333948
 20
4.178317394645068
 30
0.0
 10
4.19211728519154
 20
4.167207873539134
 30
0.0
 10
4.190820193137309
 20
4.161653112986166
 30
0.0
 10
4.189066933091812
 20
4.150543591880231
 30
0.0
 10
4.188611454933509
 20
4.144988831327264
 30
0.0
 10
4.188611454933509
 20
4.139434070774296
 30
0.0
  0
LINE
  5
101
330
1F
100
AcDbEntity
  8
0
  6
Continuous
 62
     7
370
    30
100
AcDbLine
 10
4.1886114549
 20
4.1394340708
 30
0.0
 11
4.1711114549
 21
4.1394340708
 31
0.0
  0
SPLINE
  5
102
330
1F
100
AcDbEntity
  8
0
  6
Continuous
 62
     7
370
    30
100
AcDbSpline
210
0.0
220
0.0
230
1.0
 70
     8
 71
     3
 72
    14
 73
    10
 74
     0
 42
0.000000001
 43
0.00000001
 40
0.0
 40
0.0
 40
0.0
 40
0.0
 40
0.25
 40
0.25
 40
0.5
 40
0.5
 40
0.75
 40
0.75
 40
1.0
 40
1.0
 40
1.0
 40
1.0
 10
4.20611145493351
 20
4.206091197409905
 30
0.0
 10
4.201529631221907
 20
4.20053603138803
 30
0.0
 10
4.196950278980935
 20
4.19498167630397
 30
0.0
 10
4.188484790620528
 20
4.183872155198035
 30
0.0
 10
4.184602319734387
 20
4.178317394645068
 30
0.0
 10
4.178123115449573
 20
4.167207873539134
 30
0.0
 10
4.175528931341109
 20
4.161653112986166
 30
0.0
 10
4.172022411250117
 20
4.150543591880231
 30
0.0
 10
4.171111454933508
 20
4.144989236796171
 30
0.0
 10
4.171111454933508
 20
4.139434070774296
 30
0.0
  0
LINE
  5
103
330
1F
100
AcDbEntity
  8
0
  6
Continuous
 62
     7
370
    30
100
AcDbLine
 10
4.1711114549
 20
5.8079249297
 30
0.0
 11
4.2061114549
 21
5.8079249297
 31
0.0
  0
LINE
  5
104
330
1F
100
AcDbEntity
  8
0
  6
Continuous
 62
     7
370
    30
100
AcDbLine
 10
4.1711114549
 20
5.8079249297
 30
0.0
 11
4.1711114549
 21
4.1394340708
 31
0.0
  0
LINE
  5
105
330
1F
100
AcDbEntity
  8
0
  6
Continuous
 62
     7
370
    30
100
AcDbLine
 10
4.1886114549
 20
3.8704249297
 30
0.0
 11
4.1711114549
 21
3.8704249297
 31
0.0
  0
LINE
  5
106
330
1F
100
AcDbEntity
  8
0
  6
Continuous
 62
     7
370
    30
100
AcDbLine
 10
4.1711114549
 20
4.1394340708
 30
0.0
 11
4.1711114549
 21
3.8704249297
 31
0.0
  0
LINE
  5
107
330
1F
100
AcDbEntity
  8
0
  6
Continuous
 62
     7
370
    30
100
AcDbLine
 10
4.1886114549
 20
4.1394340708
 30
0.0
 11
4.1886114549
 21
3.8704249297
 31
0.0
  0
LINE
  5
108
330
1F
100
AcDbEntity
  8
0
  6
Continuous
 62
     7
370
    30
100
AcDbLine
 10
4.1423614549
 20
3.8391749297
 30
0.0
 11
4.1598614549
 21
3.8391749297
 31
0.0
  0
LINE
  5
109
330
1F
100
AcDbEntity
  8
0
  6
Continuous
 62
     7
370
    30
100
AcDbLine
 10
4.1423614549
 20
3.8391749297
 30
0.0
 11
4.1423614549
 21
4.1081840708
 31
0.0
  0
LINE
  5
10A
330
1F
100
AcDbEntity
  8
0
  6
Continuous
 62
     7
370
    30
100
AcDbLine
 10
4.1598614549
 20
3.8391749297
 30
0.0
 11
4.1598614549
 21
4.1081840708
 31
0.0
  0
LINE
  5
10B
330
1F
100
AcDbEntity
  8
0
  6
Continuous
 62
     7
370
    30
100
AcDbLine
 10
4.1598614549
 20
5.8704249297
 30
0.0
 11
4.1423614549
 21
5.8704249297
 31
0.0
  0
LINE
  5
10C
330
1F
100
AcDbEntity
  8
0
  6
Continuous
 62
     7
370
    30
100
AcDbLine
 10
4.1423614549
 20
5.9016749297
 30
0.0
 11
4.1598614549
 21
5.9016749297
 31
0.0
  0
LINE
  5
10D
330
1F
100
AcDbEntity
  8
0
  6
Continuous
 62
     7
370
    30
100
AcDbLine
 10
4.1423614549
 20
5.8704249297
 30
0.0
 11
4.1423614549
 21
5.9016749297
 31
0.0
  0
LINE
  5
10E
330
1F
100
AcDbEntity
  8
0
  6
Continuous
 62
     7
370
    30
100
AcDbLine
 10
4.1598614549
 20
5.9016749297
 30
0.0
 11
4.1598614549
 21
5.8704249297
 31
0.0
  0
LINE
  5
10F
330
1F
100
AcDbEntity
  8
0
  6
Continuous
 62
     7
370
    30
100
AcDbLine
 10
4.1423614549
 20
5.8079249297
 30
0.0
 11
4.1423614549
 21
5.8704249297
 31
0.0
  0
LINE
  5
110
330
1F
100
AcDbEntity
  8
0
  6
Continuous
 62
     7
370
    30
100
AcDbLine
 10
4.1598614549
 20
5.8079249297
 30
0.0
 11
4.1598614549
 21
5.8704249297
 31
0.0
  0
LINE
  5
111
330
1F
100
AcDbEntity
  8
0
  6
Continuous
 62
     7
370
    30
100
AcDbLine
 10
4.1886114549
 20
5.8704249297
 30
0.0
 11
4.1711114549
 21
5.8704249297
 31
0.0
  0
LINE
  5
112
330
1F
100
AcDbEntity
  8
0
  6
Continuous
 62
     7
370
    30
100
AcDbLine
 10
4.1711114549
 20
5.8704249297
 30
0.0
 11
4.1711114549
 21
5.8079249297
 31
0.0
  0
LINE
  5
113
330
1F
100
AcDbEntity
  8
0
  6
Continuous
 62
     7
370
    30
100
AcDbLine
 10
4.1886114549
 20
5.8704249297
 30
0.0
 11
4.1886114549
 21
5.8079249297
 31
0.0
  0
LINE
  5
114
330
1F
100
AcDbEntity
  8
0
  6
Continuous
 62
     7
370
    30
100
AcDbLine
 10
4.1711114549
 20
5.9016749297
 30
0.0
 11
4.1886114549
 21
5.9016749297
 31
0.0
  0
LINE
  5
115
330
1F
100
AcDbEntity
  8
0
  6
Continuous
 62
     7
370
    30
100
AcDbLine
 10
4.1711114549
 20
5.8704249297
 30
0.0
 11
4.1711114549
 21
5.9016749297
 31
0.0
  0
LINE
  5
116
330
1F
100
AcDbEntity
  8
0
  6
Continuous
 62
     7
370
    30
100
AcDbLine
 10
4.1886114549
 20
5.9016749297
 30
0.0
 11
4.1886114549
 21
5.8704249297
 31
0.0
  0
LINE
  5
117
330
1F
100
AcDbEntity
  8
0
  6
Continuous
 62
     7
370
    30
100
AcDbLine
 10
4.2061114549
 20
5.9016749297
 30
0.0
 11
4.1886114549
 21
5.9016749297
 31
0.0
  0
LINE
  5
118
330
1F
100
AcDbEntity
  8
0
  6
Continuous
 62
     7
370
    30
100
AcDbLine
 10
4.2061114549
 20
5.8079249297
 30
0.0
 11
4.2061114549
 21
5.9016749297
 31
0.0
  0
LINE
  5
119
330
1F
100
AcDbEntity
  8
0
  6
Continuous
 62
     7
370
    30
100
AcDbLine
 10
4.1248614549
 20
5.9016749297
 30
0.0
 11
4.1248614549
 21
5.8079249297
 31
0.0
  0
LINE
  5
11A
330
1F
100
AcDbEntity
  8
0
  6
Continuous
 62
     7
370
    30
100
AcDbLine
 10
4.1423614549
 20
5.9016749297
 30
0.0
 11
4.1248614549
 21
5.9016749297
 31
0.0
  0
LINE
  5
11B
330
1F
100
AcDbEntity
  8
0
  6
Continuous
 62
     7
370
    30
100
AcDbLine
 10
4.7511114549
 20
5.4509947349
 30
0.0
 11
4.7829312601
 21
5.4191749297
 31
0.0
  0
LINE
  5
11C
330
1F
100
AcDbEntity
  8
0
  6
Continuous
 62
     7
370
    30
100
AcDbLine
 10
4.7192916498
 20
5.4191749297
 30
0.0
 11
4.7511114549
 21
5.4509947349
 31
0.0
  0
LINE
  5
11D
330
1F
100
AcDbEntity
  8
0
  6
Continuous
 62
     7
370
    30
100
AcDbLine
 10
4.7511114549
 20
5.3873551246
 30
0.0
 11
4.7192916498
 21
5.4191749297
 31
0.0
  0
LINE
  5
11E
330
1F
100
AcDbEntity
  8
0
  6
Continuous
 62
     7
370
    30
100
AcDbLine
 10
4.7829312601
 20
5.4191749297
 30
0.0
 11
4.7511114549
 21
5.3873551246
 31
0.0
  0
LINE
  5
11F
330
1F
100
AcDbEntity
  8
0
  6
Continuous
 62
     7
370
    30
100
AcDbLine
 10
4.2061114549
 20
5.9016749297
 30
0.0
 11
4.2198614549
 21
5.9016749297
 31
0.0
  0
ARC
  5
120
330
1F
100
AcDbEntity
  8
0
  6
Continuous
 62
     7
370
    30
100
AcDbCircle
 10
4.2198614549
 20
5.9329249297
 30
0.0
 40
0.0312500000000009
100
AcDbArc
 50
270.0
 51
0.0
  0
LINE
  5
121
330
1F
100
AcDbEntity
  8
0
  6
Continuous
 62
     7
370
    30
100
AcDbLine
 10
4.2511114549
 20
5.9329249297
 30
0.0
 11
4.2511114549
 21
5.9641749297
 31
0.0
  0
LINE
  5
122
330
1F
100
AcDbEntity
  8
0
  6
Continuous
 62
     7
370
    30
100
AcDbLine
 10
4.9386114549
 20
5.9641749297
 30
0.0
 11
4.9386114549
 21
5.6878744435
 31
0.0
  0
ARC
  5
123
330
1F
100
AcDbEntity
  8
0
  6
Continuous
 62
     7
370
    30
100
AcDbCircle
 10
4.9073614549
 20
5.6878744435
 30
0.0
 40
0.03125
100
AcDbArc
 50
342.0
 51
0.0
  0
LINE
  5
124
330
1F
100
AcDbEntity
  8
0
  6
Continuous
 62
     7
370
    30
100
AcDbLine
 10
4.4486114549
 20
4.1748599965
 30
0.0
 11
4.9370819711
 21
5.6782176624
 31
0.0
  0
LINE
  5
125
330
1F
100
AcDbEntity
  8
0
  6
Continuous
 62
     7
370
    30
100
AcDbLine
 10
3.3938909388
 20
5.6782176624
 30
0.0
 11
3.8823614549
 21
4.1748599965
 31
0.0
  0
ARC
  5
126
330
1F
100
AcDbEntity
  8
0
  6
Continuous
 62
     7
370
    30
100
AcDbCircle
 10
3.4236114549
 20
5.6878744435
 30
0.0
 40
0.0312499999999996
100
AcDbArc
 50
180.0
 51
198.0
  0
LINE
  5
127
330
1F
100
AcDbEntity
  8
0
  6
Continuous
 62
     7
370
    30
100
AcDbLine
 10
3.3923614549
 20
5.6878744435
 30
0.0
 11
3.3923614549
 21
5.9641749297
 31
0.0
  0
LINE
  5
128
330
1F
100
AcDbEntity
  8
0
  6
Continuous
 62
     7
370
    30
100
AcDbLine
 10
4.0798614549
 20
5.9641749297
 30
0.0
 11
4.0798614549
 21
5.9329249297
 31
0.0
  0
ARC
  5
129
330
1F
100
AcDbEntity
  8
0
  6
Continuous
 62
     7
370
    30
100
AcDbCircle
 10
4.1111114549
 20
5.9329249297
 30
0.0
 40
0.03125
100
AcDbArc
 50
180.0
 51
270.0
  0
LINE
  5
12A
330
1F
100
AcDbEntity
  8
0
  6
Continuous
 62
     7
370
    30
100
AcDbLine
 10
4.1111114549
 20
5.9016749297
 30
0.0
 11
4.1248614549
 21
5.9016749297
 31
0.0
  0
LINE
  5
12B
330
1F
100
AcDbEntity
  8
0
  6
Continuous
 62
     7
370
    30
100
AcDbLine
 10
3.6116812601
 20
5.4191749297
 30
0.0
 11
3.5798614549
 21
5.4509947349
 31
0.0
  0
LINE
  5
12C
330
1F
100
AcDbEntity
  8
0
  6
Continuous
 62
     7
370
    30
100
AcDbLine
 10
3.5798614549
 20
5.4509947349
 30
0.0
 11
3.5480416498
 21
5.4191749297
 31
0.0
  0
LINE
  5
12D
330
1F
100
AcDbEntity
  8
0
  6
Continuous
 62
     7
370
    30
100
AcDbLine
 10
3.5480416498
 20
5.4191749297
 30
0.0
 11
3.5798614549
 21
5.3873551246
 31
0.0
  0
LINE
  5
12E
330
1F
100
AcDbEntity
  8
0
  6
Continuous
 62
     7
370
    30
100
AcDbLine
 10
3.5798614549
 20
5.3873551246
 30
0.0
 11
3.6116812601
 21
5.4191749297
 31
0.0
  0
LINE
  5
12F
330
1F
100
AcDbEntity
  8
0
  6
Continuous
 62
     7
370
    30
100
AcDbLine
 10
4.9386114549
 20
5.9991749297
 30
0.0
 11
4.2511114549
 21
5.9991749297
 31
0.0
  0
LINE
  5
130
330
1F
100
AcDbEntity
  8
0
  6
Continuous
 62
     7
370
    30
100
AcDbLine
 10
4.9386114549
 20
5.9641749297
 30
0.0
 11
4.9386114549
 21
5.9991749297
 31
0.0
  0
LINE
  5
131
330
1F
100
AcDbEntity
  8
0
  6
Continuous
 62
     7
370
    30
100
AcDbLine
 10
4.2511114549
 20
5.9991749297
 30
0.0
 11
4.2511114549
 21
5.9641749297
 31
0.0
  0
LINE
  5
132
330
1F
100
AcDbEntity
  8
0
  6
Continuous
 62
     7
370
    30
100
AcDbLine
 10
3.3923614549
 20
5.9991749297
 30
0.0
 11
3.3923614549
 21
5.9641749297
 31
0.0
  0
LINE
  5
133
330
1F
100
AcDbEntity
  8
0
  6
Continuous
 62
     7
370
    30
100
AcDbLine
 10
4.0798614549
 20
5.9991749297
 30
0.0
 11
3.3923614549
 21
5.9991749297
 31
0.0
  0
LINE
  5
134
330
1F
100
AcDbEntity
  8
0
  6
Continuous
 62
     7
370
    30
100
AcDbLine
 10
4.0798614549
 20
5.9641749297
 30
0.0
 11
4.0798614549
 21
5.9991749297
 31
0.0
  0
LINE
  5
135
330
1F
100
AcDbEntity
  8
OBJ
  6
CENTERX2
100
AcDbLine
 10
4.1423614549
 20
5.8079249297
 30
0.0
 11
4.1423614549
 21
4.7603865476
 31
0.0
  0
LINE
  5
136
330
1F
100
AcDbEntity
  8
0
  6
Continuous
 62
     7
370
    30
100
AcDbLine
 10
1.8153296338
 20
5.9641749297
 30
0.0
 11
1.8328296338
 21
5.9641749297
 31
0.0
  0
LINE
  5
137
330
1F
100
AcDbEntity
  8
0
  6
Continuous
 62
     7
370
    30
100
AcDbLine
 10
1.8328296338
 20
5.9641749297
 30
0.0
 11
1.8328296338
 21
5.6878744435
 31
0.0
  0
LINE
  5
138
330
1F
100
AcDbEntity
  8
0
  6
Continuous
 62
     7
370
    30
100
AcDbLine
 10
1.8153296338
 20
5.6878744435
 30
0.0
 11
1.8328296338
 21
5.6878744435
 31
0.0
  0
LINE
  5
139
330
1F
100
AcDbEntity
  8
0
  6
Continuous
 62
     7
370
    30
100
AcDbLine
 10
1.8153296338
 20
5.9641749297
 30
0.0
 11
1.8153296338
 21
5.6878744435
 31
0.0
  0
LINE
  5
13A
330
1F
100
AcDbEntity
  8
0
  6
Continuous
 62
     7
370
    30
100
AcDbLine
 10
1.8503296338
 20
5.9816749297
 30
0.0
 11
1.8503296338
 21
5.9991749297
 31
0.0
  0
ARC
  5
13B
330
1F
100
AcDbEntity
  8
0
  6
Continuous
 62
     7
370
    30
100
AcDbCircle
 10
1.8503296338
 20
5.9641749297
 30
0.0
 40
0.0175000000000001
100
AcDbArc
 50
90.0
 51
180.0
  0
ARC
  5
13C
330
1F
100
AcDbEntity
  8
0
  6
Continuous
 62
     7
370
    30
100
AcDbCircle
 10
1.8503296338
 20
5.9641749297
 30
0.0
 40
0.0350000000000001
100
AcDbArc
 50
90.0
 51
180.0
  0
LINE
  5
13D
330
1F
100
AcDbEntity
  8
0
  6
Continuous
 62
     7
370
    30
100
AcDbLine
 10
1.8503296338
 20
5.9991749297
 30
0.0
 11
2.4578296338
 21
5.9991749297
 31
0.0
  0
LINE
  5
13E
330
1F
100
AcDbEntity
  8
0
  6
Continuous
 62
     7
370
    30
100
AcDbLine
 10
2.4578296338
 20
5.9816749297
 30
0.0
 11
2.4578296338
 21
5.9991749297
 31
0.0
  0
LINE
  5
13F
330
1F
100
AcDbEntity
  8
0
  6
Continuous
 62
     7
370
    30
100
AcDbLine
 10
1.8503296338
 20
5.9816749297
 30
0.0
 11
2.4578296338
 21
5.9816749297
 31
0.0
  0
LINE
  5
140
330
1F
100
AcDbEntity
  8
0
  6
Continuous
 62
     7
370
    30
100
AcDbLine
 10
2.4890796338
 20
5.9991749297
 30
0.0
 11
2.4890796338
 21
5.9816749297
 31
0.0
  0
LINE
  5
141
330
1F
100
AcDbEntity
  8
0
  6
Continuous
 62
     7
370
    30
100
AcDbLine
 10
2.4578296338
 20
5.9991749297
 30
0.0
 11
2.4890796338
 21
5.9991749297
 31
0.0
  0
LINE
  5
142
330
1F
100
AcDbEntity
  8
0
  6
Continuous
 62
     7
370
    30
100
AcDbLine
 10
2.4890796338
 20
5.9816749297
 30
0.0
 11
2.4578296338
 21
5.9816749297
 31
0.0
  0
LINE
  5
143
330
1F
100
AcDbEntity
  8
0
  6
Continuous
 62
     7
370
    30
100
AcDbLine
 10
1.8328296338
 20
5.6782176624
 30
0.0
 11
1.8153296338
 21
5.6782176624
 31
0.0
  0
LINE
  5
144
330
1F
100
AcDbEntity
  8
0
  6
Continuous
 62
     7
370
    30
100
AcDbLine
 10
1.8328296338
 20
5.6878744435
 30
0.0
 11
1.8328296338
 21
5.6782176624
 31
0.0
  0
LINE
  5
145
330
1F
100
AcDbEntity
  8
0
  6
Continuous
 62
     7
370
    30
100
AcDbLine
 10
1.8153296338
 20
5.6782176624
 30
0.0
 11
1.8153296338
 21
5.6878744435
 31
0.0
  0
LINE
  5
146
330
1F
100
AcDbEntity
  8
0
  6
Continuous
 62
     7
370
    30
100
AcDbLine
 10
1.8153296338
 20
3.8295181486
 30
0.0
 11
1.8328296338
 21
3.8295181486
 31
0.0
  0
LINE
  5
147
330
1F
100
AcDbEntity
  8
0
  6
Continuous
 62
     7
370
    30
100
AcDbLine
 10
1.8328296338
 20
3.8295181486
 30
0.0
 11
1.8328296338
 21
5.6782176624
 31
0.0
  0
LINE
  5
148
330
1F
100
AcDbEntity
  8
0
  6
Continuous
 62
     7
370
    30
100
AcDbLine
 10
1.8153296338
 20
3.8295181486
 30
0.0
 11
1.8153296338
 21
5.6782176624
 31
0.0
  0
LINE
  5
149
330
1F
100
AcDbEntity
  8
0
  6
Continuous
 62
     7
370
    30
100
AcDbLine
 10
1.4697046338
 20
3.1536671748
 30
0.0
 11
1.4697046338
 21
5.8079249297
 31
0.0
  0
SPLINE
  5
14A
330
1F
100
AcDbEntity
  8
0
  6
Continuous
 62
     7
370
    30
100
AcDbSpline
210
0.0
220
0.0
230
1.0
 70
     8
 71
     3
 72
     8
 73
     4
 74
     0
 42
0.000000001
 43
0.00000001
 40
0.0
 40
0.0
 40
0.0
 40
0.0
 40
1.0
 40
1.0
 40
1.0
 40
1.0
 10
1.469491611962063
 20
3.153549929723751
 30
0.0
 10
1.469633482258949
 20
3.153589011418946
 30
0.0
 10
1.469704633757961
 20
3.153628093114142
 30
0.0
 10
1.469704633757961
 20
3.153667174809338
 30
0.0
  0
LINE
  5
14B
330
1F
100
AcDbEntity
  8
0
  6
Continuous
 62
     7
370
    30
100
AcDbLine
 10
1.4347046338
 20
3.1535499297
 30
0.0
 11
1.469491612
 21
3.1535499297
 31
0.0
  0
LINE
  5
14C
330
1F
100
AcDbEntity
  8
0
  6
Continuous
 62
     7
370
    30
100
AcDbLine
 10
1.4697046338
 20
5.8079249297
 30
0.0
 11
1.4347046338
 21
5.8079249297
 31
0.0
  0
LINE
  5
14D
330
1F
100
AcDbEntity
  8
0
  6
Continuous
 62
     7
370
    30
100
AcDbLine
 10
1.4209546338
 20
3.1535499297
 30
0.0
 11
1.4347046338
 21
3.1535499297
 31
0.0
  0
ARC
  5
14E
330
1F
100
AcDbEntity
  8
0
  6
Continuous
 62
     7
370
    30
100
AcDbCircle
 10
1.4209546338
 20
3.1222999297
 30
0.0
 40
0.0312499999999998
100
AcDbArc
 50
90.0
 51
180.0
  0
LINE
  5
14F
330
1F
100
AcDbEntity
  8
0
  6
Continuous
 62
     7
370
    30
100
AcDbLine
 10
1.3897046338
 20
3.0460499297
 30
0.0
 11
1.3897046338
 21
3.1222999297
 31
0.0
  0
LINE
  5
150
330
1F
100
AcDbEntity
  8
0
  6
Continuous
 62
     7
370
    30
100
AcDbLine
 10
0.8897046338
 20
4.552975416
 30
0.0
 11
0.8897046338
 21
3.0460499297
 31
0.0
  0
ARC
  5
151
330
1F
100
AcDbEntity
  8
0
  6
Continuous
 62
     7
370
    30
100
AcDbCircle
 10
0.9209546338
 20
4.552975416
 30
0.0
 40
0.0312500000000001
100
AcDbArc
 50
162.0
 51
180.0
  0
LINE
  5
152
330
1F
100
AcDbEntity
  8
0
  6
Continuous
 62
     7
370
    30
100
AcDbLine
 10
0.8912341176
 20
4.562632197
 30
0.0
 11
1.2888381919
 21
5.7863317108
 31
0.0
  0
ARC
  5
153
330
1F
100
AcDbEntity
  8
0
  6
Continuous
 62
     7
370
    30
100
AcDbCircle
 10
1.318558708
 20
5.7766749297
 30
0.0
 40
0.0312500000000009
100
AcDbArc
 50
90.0
 51
162.0
  0
LINE
  5
154
330
1F
100
AcDbEntity
  8
0
  6
Continuous
 62
     7
370
    30
100
AcDbLine
 10
1.4347046338
 20
5.8079249297
 30
0.0
 11
1.318558708
 21
5.8079249297
 31
0.0
  0
CIRCLE
  5
155
330
1F
100
AcDbEntity
  8
0
  6
Continuous
 62
     7
370
    30
100
AcDbCircle
 10
0.9522046338
 20
3.1535499297
 30
0.0
 40
0.0205000000000002
  0
CIRCLE
  5
156
330
1F
100
AcDbEntity
  8
0
  6
Continuous
 62
     7
370
    30
100
AcDbCircle
 10
1.2022046338
 20
3.2785499297
 30
0.0
 40
0.0204999999999997
  0
CIRCLE
  5
157
330
1F
100
AcDbEntity
  8
0
  6
Continuous
 62
     7
370
    30
100
AcDbCircle
 10
1.2647046338
 20
3.7785499297
 30
0.0
 40
0.0205000000000002
  0
LINE
  5
158
330
1F
100
AcDbEntity
  8
0
  6
Continuous
 62
     7
370
    30
100
AcDbLine
 10
0.8897046338
 20
3.0460499297
 30
0.0
 11
0.8897046338
 21
3.0110499297
 31
0.0
  0
LINE
  5
159
330
1F
100
AcDbEntity
  8
0
  6
Continuous
 62
     7
370
    30
100
AcDbLine
 10
1.3897046338
 20
3.0110499297
 30
0.0
 11
1.3897046338
 21
3.0460499297
 31
0.0
  0
LINE
  5
15A
330
1F
100
AcDbEntity
  8
0
  6
Continuous
 62
     7
370
    30
100
AcDbLine
 10
1.3897046338
 20
3.0110499297
 30
0.0
 11
0.8897046338
 21
3.0110499297
 31
0.0
  0
LINE
  5
15B
330
1F
100
AcDbEntity
  8
0
  6
Continuous
 62
     7
370
    30
100
AcDbLine
 10
1.8328296338
 20
3.8079249297
 30
0.0
 11
1.8153296338
 21
3.8079249297
 31
0.0
  0
LINE
  5
15C
330
1F
100
AcDbEntity
  8
0
  6
Continuous
 62
     7
370
    30
100
AcDbLine
 10
1.8328296338
 20
3.8295181486
 30
0.0
 11
1.8328296338
 21
3.8079249297
 31
0.0
  0
LINE
  5
15D
330
1F
100
AcDbEntity
  8
0
  6
Continuous
 62
     7
370
    30
100
AcDbLine
 10
1.8153296338
 20
3.8079249297
 30
0.0
 11
1.8153296338
 21
3.8295181486
 31
0.0
  0
SPLINE
  5
15E
330
1F
100
AcDbEntity
  8
0
  6
Continuous
 62
     7
370
    30
100
AcDbSpline
210
0.0
220
0.0
230
1.0
 70
     8
 71
     3
 72
    14
 73
    10
 74
     0
 42
0.000000001
 43
0.00000001
 40
0.0
 40
0.0
 40
0.0
 40
0.0
 40
0.25
 40
0.25
 40
0.5
 40
0.5
 40
0.75
 40
0.75
 40
1.0
 40
1.0
 40
1.0
 40
1.0
 10
1.469704633757961
 20
4.206091197409905
 30
0.0
 10
1.46970463375796
 20
4.200536436856938
 30
0.0
 10
1.470160111916265
 20
4.19498167630397
 30
0.0
 10
1.471913371961761
 20
4.183872155198036
 30
0.0
 10
1.473210464015992
 20
4.178317394645068
 30
0.0
 10
1.476450066158399
 20
4.167207873539134
 30
0.0
 10
1.478391301601469
 20
4.161653112986166
 30
0.0
 10
1.482624045781673
 20
4.150543591880231
 30
0.0
 10
1.484913889114718
 20
4.144988831327264
 30
0.0
 10
1.48720463375796
 20
4.139434070774296
 30
0.0
  0
SPLINE
  5
15F
330
1F
100
AcDbEntity
  8
0
  6
Continuous
 62
     7
370
    30
100
AcDbSpline
210
0.0
220
0.0
230
1.0
 70
     8
 71
     3
 72
     9
 73
     5
 74
     0
 42
0.000000001
 43
0.00000001
 40
0.0
 40
0.0
 40
0.0
 40
0.0
 40
0.2655783714906912
 40
1.0
 40
1.0
 40
1.0
 40
1.0
 10
1.46970463375796
 20
4.16212441786106
 30
0.0
 10
1.471040688723299
 20
4.160115729385106
 30
0.0
 10
1.476071425819244
 20
4.152552280356185
 30
0.0
 10
1.482490400165341
 20
4.144988831327264
 30
0.0
 10
1.48720463375796
 20
4.139434070774296
 30
0.0
  0
LINE
  5
160
330
1F
100
AcDbEntity
  8
0
  6
Continuous
 62
     7
370
    30
100
AcDbLine
 10
1.4872046338
 20
5.8079249297
 30
0.0
 11
1.4697046338
 21
5.8079249297
 31
0.0
  0
LINE
  5
161
330
1F
100
AcDbEntity
  8
0
  6
Continuous
 62
     7
370
    30
100
AcDbLine
 10
1.4872046338
 20
4.1394340708
 30
0.0
 11
1.4872046338
 21
5.8079249297
 31
0.0
  0
SPLINE
  5
162
330
1F
100
AcDbEntity
  8
0
  6
Continuous
 62
     7
370
    30
100
AcDbSpline
210
0.0
220
0.0
230
1.0
 70
     8
 71
     3
 72
    14
 73
    10
 74
     0
 42
0.000000001
 43
0.00000001
 40
0.0
 40
0.0
 40
0.0
 40
0.0
 40
0.25
 40
0.25
 40
0.5
 40
0.5
 40
0.75
 40
0.75
 40
1.0
 40
1.0
 40
1.0
 40
1.0
 10
1.79782963375796
 20
4.13943407077429
 30
0.0
 10
1.800120378401203
 20
4.144988831327257
 30
0.0
 10
1.802410221734248
 20
4.150543591880226
 30
0.0
 10
1.806642965914451
 20
4.161653112986159
 30
0.0
 10
1.808584201357521
 20
4.167207873539128
 30
0.0
 10
1.811823803499928
 20
4.178317394645061
 30
0.0
 10
1.81312089555416
 20
4.18387215519803
 30
0.0
 10
1.814874155599656
 20
4.194981676303964
 30
0.0
 10
1.81532963375796
 20
4.200536436856932
 30
0.0
 10
1.81532963375796
 20
4.206091197409899
 30
0.0
  0
SPLINE
  5
163
330
1F
100
AcDbEntity
  8
0
  6
Continuous
 62
     7
370
    30
100
AcDbSpline
210
0.0
220
0.0
230
1.0
 70
     8
 71
     3
 72
     9
 73
     5
 74
     0
 42
0.000000001
 43
0.00000001
 40
0.0
 40
0.0
 40
0.0
 40
0.0
 40
0.7344216285093046
 40
0.9999999999999999
 40
0.9999999999999999
 40
0.9999999999999999
 40
0.9999999999999999
 10
1.79782963375796
 20
4.13943407077429
 30
0.0
 10
1.80254386735058
 20
4.144988831327257
 30
0.0
 10
1.808962841696676
 20
4.152552280356178
 30
0.0
 10
1.813993578792622
 20
4.1601157293851
 30
0.0
 10
1.81532963375796
 20
4.162124417861054
 30
0.0
  0
LINE
  5
164
330
1F
100
AcDbEntity
  8
0
  6
Continuous
 62
     7
370
    30
100
AcDbLine
 10
1.7978296338
 20
5.9016749297
 30
0.0
 11
1.7978296338
 21
4.1394340708
 31
0.0
  0
LINE
  5
165
330
1F
100
AcDbEntity
  8
0
  6
Continuous
 62
     7
370
    30
100
AcDbLine
 10
1.8153296338
 20
5.9016749297
 30
0.0
 11
1.7978296338
 21
5.9016749297
 31
0.0
  0
LINE
  5
166
330
1F
100
AcDbEntity
  8
0
  6
Continuous
 62
     7
370
    30
100
AcDbLine
 10
1.6425171338
 20
3.8704249297
 30
0.0
 11
1.7978296338
 21
4.1394340708
 31
0.0
  0
LINE
  5
167
330
1F
100
AcDbEntity
  8
0
  6
Continuous
 62
     7
370
    30
100
AcDbLine
 10
1.4872046338
 20
4.1394340708
 30
0.0
 11
1.6425171338
 21
3.8704249297
 31
0.0
  0
LINE
  5
168
330
1F
100
AcDbEntity
  8
0
  6
Continuous
 62
     7
370
    30
100
AcDbLine
 10
1.4872046338
 20
5.8079249297
 30
0.0
 11
1.5147046338
 21
5.8079249297
 31
0.0
  0
LINE
  5
169
330
1F
100
AcDbEntity
  8
0
  6
Continuous
 62
     7
370
    30
100
AcDbLine
 10
1.5147046338
 20
5.8704249297
 30
0.0
 11
1.5147046338
 21
5.8079249297
 31
0.0
  0
ARC
  5
16A
330
1F
100
AcDbEntity
  8
0
  6
Continuous
 62
     7
370
    30
100
AcDbCircle
 10
1.5459546338
 20
5.8704249297
 30
0.0
 40
0.0312500000000002
100
AcDbArc
 50
90.0
 51
180.0
  0
LINE
  5
16B
330
1F
100
AcDbEntity
  8
0
  6
Continuous
 62
     7
370
    30
100
AcDbLine
 10
1.7978296338
 20
5.9016749297
 30
0.0
 11
1.5459546338
 21
5.9016749297
 31
0.0
  0
CIRCLE
  5
16C
330
1F
100
AcDbEntity
  8
0
  6
Continuous
 62
     7
370
    30
100
AcDbCircle
 10
1.6425171338
 20
5.2616749297
 30
0.0
 40
0.0312500000000009
  0
CIRCLE
  5
16D
330
1F
100
AcDbEntity
  8
0
  6
Continuous
 62
     7
370
    30
100
AcDbCircle
 10
1.6425171338
 20
4.5116749297
 30
0.0
 40
0.03125
  0
CIRCLE
  5
16E
330
1F
100
AcDbEntity
  8
0
  6
Continuous
 62
     7
370
    30
100
AcDbCircle
 10
1.6425171338
 20
4.7616749297
 30
0.0
 40
0.046875
  0
CIRCLE
  5
16F
330
1F
100
AcDbEntity
  8
0
  6
Continuous
 62
     7
370
    30
100
AcDbCircle
 10
1.6425171338
 20
4.2616749297
 30
0.0
 40
0.046875
  0
LINE
  5
170
330
1F
100
AcDbEntity
  8
0
  6
Continuous
 62
     7
370
    30
100
AcDbLine
 10
1.4872046338
 20
4.1081840708
 30
0.0
 11
1.4872046338
 21
4.1394340708
 31
0.0
  0
SPLINE
  5
171
330
1F
100
AcDbEntity
  8
0
  6
Continuous
 62
     7
370
    30
100
AcDbSpline
210
0.0
220
0.0
230
1.0
 70
     8
 71
     3
 72
     9
 73
     5
 74
     0
 42
0.000000001
 43
0.00000001
 40
0.0
 40
0.0
 40
0.0
 40
0.0
 40
0.7344216285093473
 40
1.0
 40
1.0
 40
1.0
 40
1.0
 10
1.48720463375796
 20
4.108184070774302
 30
0.0
 10
1.48249040016534
 20
4.11373883132727
 30
0.0
 10
1.476071425819243
 20
4.121302280356191
 30
0.0
 10
1.471040688723298
 20
4.128865729385111
 30
0.0
 10
1.46970463375796
 20
4.130874417861064
 30
0.0
  0
LINE
  5
172
330
1F
100
AcDbEntity
  8
0
  6
Continuous
 62
     7
370
    30
100
AcDbLine
 10
1.7978296338
 20
4.1081840708
 30
0.0
 11
1.7978296338
 21
4.1394340708
 31
0.0
  0
LINE
  5
173
330
1F
100
AcDbEntity
  8
0
  6
Continuous
 62
     7
370
    30
100
AcDbLine
 10
1.7978296338
 20
4.1081840708
 30
0.0
 11
1.6425171338
 21
3.8391749297
 31
0.0
  0
LINE
  5
174
330
1F
100
AcDbEntity
  8
0
  6
Continuous
 62
     7
370
    30
100
AcDbLine
 10
1.6425171338
 20
3.8391749297
 30
0.0
 11
1.4872046338
 21
4.1081840708
 31
0.0
  0
SPLINE
  5
175
330
1F
100
AcDbEntity
  8
0
  6
Continuous
 62
     7
370
    30
100
AcDbSpline
210
0.0
220
0.0
230
1.0
 70
     8
 71
     3
 72
     9
 73
     5
 74
     0
 42
0.000000001
 43
0.00000001
 40
0.0
 40
0.0
 40
0.0
 40
0.0
 40
0.2655783714906806
 40
1.0
 40
1.0
 40
1.0
 40
1.0
 10
1.81532963375796
 20
4.130874417861059
 30
0.0
 10
1.813993578792622
 20
4.128865729385106
 30
0.0
 10
1.808962841696677
 20
4.121302280356185
 30
0.0
 10
1.80254386735058
 20
4.113738831327264
 30
0.0
 10
1.79782963375796
 20
4.108184070774296
 30
0.0
  0
INSERT
  5
181
330
1F
100
AcDbEntity
  8
BLANK-SIZE-2
100
AcDbBlockReference
  2
SW_CENTERMARKSYMBOL_0
 10
0.9522046338
 20
3.1535499297
 30
0.0
  0
INSERT
  5
18D
330
1F
100
AcDbEntity
  8
BLANK-SIZE-2
100
AcDbBlockReference
  2
SW_CENTERMARKSYMBOL_1
 10
1.2022046338
 20
3.2785499297
 30
0.0
  0
INSERT
  5
199
330
1F
100
AcDbEntity
  8
BLANK-SIZE-2
100
AcDbBlockReference
  2
SW_CENTERMARKSYMBOL_2
 10
1.2647046338
 20
3.7785499297
 30
0.0
  0
LINE
  5
19A
330
1F
100
AcDbEntity
  8
0
  6
Continuous
 62
     7
370
    30
100
AcDbLine
 10
6.2538541193
 20
5.6782176624
 30
0.0
 11
6.2363541193
 21
5.6782176624
 31
0.0
  0
LINE
  5
19B
330
1F
100
AcDbEntity
  8
0
  6
Continuous
 62
     7
370
    30
100
AcDbLine
 10
6.2363541193
 20
5.6782176624
 30
0.0
 11
6.2363541193
 21
5.6878744435
 31
0.0
  0
LINE
  5
19C
330
1F
100
AcDbEntity
  8
0
  6
Continuous
 62
     7
370
    30
100
AcDbLine
 10
6.2363541193
 20
5.6878744435
 30
0.0
 11
6.2538541193
 21
5.6878744435
 31
0.0
  0
LINE
  5
19D
330
1F
100
AcDbEntity
  8
0
  6
Continuous
 62
     7
370
    30
100
AcDbLine
 10
6.2538541193
 20
5.6878744435
 30
0.0
 11
6.2538541193
 21
5.6782176624
 31
0.0
  0
LINE
  5
19E
330
1F
100
AcDbEntity
  8
0
  6
Continuous
 62
     7
370
    30
100
AcDbLine
 10
6.2538541193
 20
5.9641749297
 30
0.0
 11
6.2363541193
 21
5.9641749297
 31
0.0
  0
LINE
  5
19F
330
1F
100
AcDbEntity
  8
0
  6
Continuous
 62
     7
370
    30
100
AcDbLine
 10
6.2538541193
 20
5.6878744435
 30
0.0
 11
6.2538541193
 21
5.9641749297
 31
0.0
  0
LINE
  5
1A0
330
1F
100
AcDbEntity
  8
0
  6
Continuous
 62
     7
370
    30
100
AcDbLine
 10
6.2363541193
 20
5.6878744435
 30
0.0
 11
6.2363541193
 21
5.9641749297
 31
0.0
  0
ARC
  5
1A1
330
1F
100
AcDbEntity
  8
0
  6
Continuous
 62
     7
370
    30
100
AcDbCircle
 10
6.2188541193
 20
5.9641749297
 30
0.0
 40
0.0350000000000001
100
AcDbArc
 50
0.0
 51
90.0
  0
LINE
  5
1A2
330
1F
100
AcDbEntity
  8
0
  6
Continuous
 62
     7
370
    30
100
AcDbLine
 10
6.2188541193
 20
5.9816749297
 30
0.0
 11
6.2188541193
 21
5.9991749297
 31
0.0
  0
ARC
  5
1A3
330
1F
100
AcDbEntity
  8
0
  6
Continuous
 62
     7
370
    30
100
AcDbCircle
 10
6.2188541193
 20
5.9641749297
 30
0.0
 40
0.0175000000000018
100
AcDbArc
 50
0.0
 51
90.0
  0
LINE
  5
1A4
330
1F
100
AcDbEntity
  8
0
  6
Continuous
 62
     7
370
    30
100
AcDbLine
 10
5.6113541193
 20
5.9991749297
 30
0.0
 11
5.6113541193
 21
5.9816749297
 31
0.0
  0
LINE
  5
1A5
330
1F
100
AcDbEntity
  8
0
  6
Continuous
 62
     7
370
    30
100
AcDbLine
 10
5.6113541193
 20
5.9816749297
 30
0.0
 11
5.5801041193
 21
5.9816749297
 31
0.0
  0
LINE
  5
1A6
330
1F
100
AcDbEntity
  8
0
  6
Continuous
 62
     7
370
    30
100
AcDbLine
 10
5.5801041193
 20
5.9816749297
 30
0.0
 11
5.5801041193
 21
5.9991749297
 31
0.0
  0
LINE
  5
1A7
330
1F
100
AcDbEntity
  8
0
  6
Continuous
 62
     7
370
    30
100
AcDbLine
 10
5.5801041193
 20
5.9991749297
 30
0.0
 11
5.6113541193
 21
5.9991749297
 31
0.0
  0
LINE
  5
1A8
330
1F
100
AcDbEntity
  8
0
  6
Continuous
 62
     7
370
    30
100
AcDbLine
 10
5.6113541193
 20
5.9816749297
 30
0.0
 11
6.2188541193
 21
5.9816749297
 31
0.0
  0
LINE
  5
1A9
330
1F
100
AcDbEntity
  8
0
  6
Continuous
 62
     7
370
    30
100
AcDbLine
 10
5.6113541193
 20
5.9991749297
 30
0.0
 11
6.2188541193
 21
5.9991749297
 31
0.0
  0
LINE
  5
1AA
330
1F
100
AcDbEntity
  8
0
  6
Continuous
 62
     7
370
    30
100
AcDbLine
 10
6.2363541193
 20
3.8295181486
 30
0.0
 11
6.2538541193
 21
3.8295181486
 31
0.0
  0
LINE
  5
1AB
330
1F
100
AcDbEntity
  8
0
  6
Continuous
 62
     7
370
    30
100
AcDbLine
 10
6.2538541193
 20
5.6782176624
 30
0.0
 11
6.2538541193
 21
3.8295181486
 31
0.0
  0
LINE
  5
1AC
330
1F
100
AcDbEntity
  8
0
  6
Continuous
 62
     7
370
    30
100
AcDbLine
 10
6.2363541193
 20
5.6782176624
 30
0.0
 11
6.2363541193
 21
3.8295181486
 31
0.0
  0
LINE
  5
1AD
330
1F
100
AcDbEntity
  8
0
  6
Continuous
 62
     7
370
    30
100
AcDbLine
 10
6.5996921411
 20
3.1535499297
 30
0.0
 11
6.6344791193
 21
3.1535499297
 31
0.0
  0
SPLINE
  5
1AE
330
1F
100
AcDbEntity
  8
0
  6
Continuous
 62
     7
370
    30
100
AcDbSpline
210
0.0
220
0.0
230
1.0
 70
     8
 71
     3
 72
     8
 73
     4
 74
     0
 42
0.000000001
 43
0.00000001
 40
0.0
 40
0.0
 40
0.0
 40
0.0
 40
1.0
 40
1.0
 40
1.0
 40
1.0
 10
6.599479119311189
 20
3.15366717480934
 30
0.0
 10
6.59947911931119
 20
3.153628093114145
 30
0.0
 10
6.599550270810201
 20
3.15358901141895
 30
0.0
 10
6.599692141107087
 20
3.153549929723754
 30
0.0
  0
LINE
  5
1AF
330
1F
100
AcDbEntity
  8
0
  6
Continuous
 62
     7
370
    30
100
AcDbLine
 10
6.5994791193
 20
5.8079249297
 30
0.0
 11
6.5994791193
 21
3.1536671748
 31
0.0
  0
LINE
  5
1B0
330
1F
100
AcDbEntity
  8
0
  6
Continuous
 62
     7
370
    30
100
AcDbLine
 10
6.6344791193
 20
5.8079249297
 30
0.0
 11
6.5994791193
 21
5.8079249297
 31
0.0
  0
LINE
  5
1B1
330
1F
100
AcDbEntity
  8
0
  6
Continuous
 62
     7
370
    30
100
AcDbLine
 10
6.6794791193
 20
3.1222999297
 30
0.0
 11
6.6794791193
 21
3.0460499297
 31
0.0
  0
ARC
  5
1B2
330
1F
100
AcDbEntity
  8
0
  6
Continuous
 62
     7
370
    30
100
AcDbCircle
 10
6.6482291193
 20
3.1222999297
 30
0.0
 40
0.03125
100
AcDbArc
 50
0.0
 51
90.0
  0
LINE
  5
1B3
330
1F
100
AcDbEntity
  8
0
  6
Continuous
 62
     7
370
    30
100
AcDbLine
 10
6.6344791193
 20
3.1535499297
 30
0.0
 11
6.6482291193
 21
3.1535499297
 31
0.0
  0
ARC
  5
1B4
330
1F
100
AcDbEntity
  8
0
  6
Continuous
 62
     7
370
    30
100
AcDbCircle
 10
6.750625045
 20
5.7766749297
 30
0.0
 40
0.0312500000000009
100
AcDbArc
 50
18.0
 51
90.0
  0
LINE
  5
1B5
330
1F
100
AcDbEntity
  8
0
  6
Continuous
 62
     7
370
    30
100
AcDbLine
 10
6.7803455612
 20
5.7863317108
 30
0.0
 11
7.1779496354
 21
4.562632197
 31
0.0
  0
ARC
  5
1B6
330
1F
100
AcDbEntity
  8
0
  6
Continuous
 62
     7
370
    30
100
AcDbCircle
 10
7.1482291193
 20
4.552975416
 30
0.0
 40
0.0312499999999998
100
AcDbArc
 50
0.0
 51
18.0
  0
LINE
  5
1B7
330
1F
100
AcDbEntity
  8
0
  6
Continuous
 62
     7
370
    30
100
AcDbLine
 10
7.1794791193
 20
3.0460499297
 30
0.0
 11
7.1794791193
 21
4.552975416
 31
0.0
  0
CIRCLE
  5
1B8
330
1F
100
AcDbEntity
  8
0
  6
Continuous
 62
     7
370
    30
100
AcDbCircle
 10
6.8669791193
 20
3.7160499297
 30
0.0
 40
0.0205000000000002
  0
CIRCLE
  5
1B9
330
1F
100
AcDbEntity
  8
0
  6
Continuous
 62
     7
370
    30
100
AcDbCircle
 10
6.8357291193
 20
3.3410499297
 30
0.0
 40
0.0204999999999997
  0
CIRCLE
  5
1BA
330
1F
100
AcDbEntity
  8
0
  6
Continuous
 62
     7
370
    30
100
AcDbCircle
 10
7.0857291193
 20
3.2160499297
 30
0.0
 40
0.0204999999999997
  0
LINE
  5
1BB
330
1F
100
AcDbEntity
  8
0
  6
Continuous
 62
     7
370
    30
100
AcDbLine
 10
6.750625045
 20
5.8079249297
 30
0.0
 11
6.6344791193
 21
5.8079249297
 31
0.0
  0
LINE
  5
1BC
330
1F
100
AcDbEntity
  8
0
  6
Continuous
 62
     7
370
    30
100
AcDbLine
 10
7.1794791193
 20
3.0110499297
 30
0.0
 11
6.6794791193
 21
3.0110499297
 31
0.0
  0
LINE
  5
1BD
330
1F
100
AcDbEntity
  8
0
  6
Continuous
 62
     7
370
    30
100
AcDbLine
 10
7.1794791193
 20
3.0110499297
 30
0.0
 11
7.1794791193
 21
3.0460499297
 31
0.0
  0
LINE
  5
1BE
330
1F
100
AcDbEntity
  8
0
  6
Continuous
 62
     7
370
    30
100
AcDbLine
 10
6.6794791193
 20
3.0460499297
 30
0.0
 11
6.6794791193
 21
3.0110499297
 31
0.0
  0
LINE
  5
1BF
330
1F
100
AcDbEntity
  8
0
  6
Continuous
 62
     7
370
    30
100
AcDbLine
 10
6.2538541193
 20
3.8079249297
 30
0.0
 11
6.2363541193
 21
3.8079249297
 31
0.0
  0
LINE
  5
1C0
330
1F
100
AcDbEntity
  8
0
  6
Continuous
 62
     7
370
    30
100
AcDbLine
 10
6.2538541193
 20
3.8295181486
 30
0.0
 11
6.2538541193
 21
3.8079249297
 31
0.0
  0
LINE
  5
1C1
330
1F
100
AcDbEntity
  8
0
  6
Continuous
 62
     7
370
    30
100
AcDbLine
 10
6.2363541193
 20
3.8079249297
 30
0.0
 11
6.2363541193
 21
3.8295181486
 31
0.0
  0
SPLINE
  5
1C2
330
1F
100
AcDbEntity
  8
0
  6
Continuous
 62
     7
370
    30
100
AcDbSpline
210
0.0
220
0.0
230
1.0
 70
     8
 71
     3
 72
    14
 73
    10
 74
     0
 42
0.000000001
 43
0.00000001
 40
0.0
 40
0.0
 40
0.0
 40
0.0
 40
0.25
 40
0.25
 40
0.5
 40
0.5
 40
0.75
 40
0.75
 40
1.0
 40
1.0
 40
1.0
 40
1.0
 10
6.58197911931119
 20
4.108184070774302
 30
0.0
 10
6.584269863954432
 20
4.11373883132727
 30
0.0
 10
6.586559707287478
 20
4.119293591880237
 30
0.0
 10
6.590792451467681
 20
4.130403112986172
 30
0.0
 10
6.592733686910751
 20
4.13595787353914
 30
0.0
 10
6.595973289053158
 20
4.147067394645075
 30
0.0
 10
6.597270381107389
 20
4.152622155198042
 30
0.0
 10
6.599023641152885
 20
4.163731676303978
 30
0.0
 10
6.59947911931119
 20
4.169286436856945
 30
0.0
 10
6.59947911931119
 20
4.174841197409912
 30
0.0
  0
SPLINE
  5
1C3
330
1F
100
AcDbEntity
  8
0
  6
Continuous
 62
     7
370
    30
100
AcDbSpline
210
0.0
220
0.0
230
1.0
 70
     8
 71
     3
 72
     9
 73
     5
 74
     0
 42
0.000000001
 43
0.00000001
 40
0.0
 40
0.0
 40
0.0
 40
0.0
 40
0.7344216285093749
 40
0.9999999999999999
 40
0.9999999999999999
 40
0.9999999999999999
 40
0.9999999999999999
 10
6.58197911931119
 20
4.108184070774302
 30
0.0
 10
6.58669335290381
 20
4.11373883132727
 30
0.0
 10
6.593112327249907
 20
4.12130228035619
 30
0.0
 10
6.598143064345851
 20
4.128865729385111
 30
0.0
 10
6.59947911931119
 20
4.130874417861063
 30
0.0
  0
LINE
  5
1C4
330
1F
100
AcDbEntity
  8
0
  6
Continuous
 62
     7
370
    30
100
AcDbLine
 10
6.5819791193
 20
5.8079249297
 30
0.0
 11
6.5819791193
 21
4.1081840708
 31
0.0
  0
LINE
  5
1C5
330
1F
100
AcDbEntity
  8
0
  6
Continuous
 62
     7
370
    30
100
AcDbLine
 10
6.5994791193
 20
5.8079249297
 30
0.0
 11
6.5819791193
 21
5.8079249297
 31
0.0
  0
SPLINE
  5
1C6
330
1F
100
AcDbEntity
  8
0
  6
Continuous
 62
     7
370
    30
100
AcDbSpline
210
0.0
220
0.0
230
1.0
 70
     8
 71
     3
 72
    14
 73
    10
 74
     0
 42
0.000000001
 43
0.00000001
 40
0.0
 40
0.0
 40
0.0
 40
0.0
 40
0.25
 40
0.25
 40
0.5
 40
0.5
 40
0.75
 40
0.75
 40
1.0
 40
1.0
 40
1.0
 40
1.0
 10
6.253854119311189
 20
4.174841197409906
 30
0.0
 10
6.253854119311189
 20
4.169286436856939
 30
0.0
 10
6.254309597469494
 20
4.163731676303971
 30
0.0
 10
6.256062857514991
 20
4.152622155198037
 30
0.0
 10
6.257359949569221
 20
4.147067394645068
 30
0.0
 10
6.260599551711628
 20
4.135957873539134
 30
0.0
 10
6.262540787154698
 20
4.130403112986166
 30
0.0
 10
6.266773531334901
 20
4.119293591880231
 30
0.0
 10
6.269063374667947
 20
4.113738831327264
 30
0.0
 10
6.27135411931119
 20
4.108184070774296
 30
0.0
  0
SPLINE
  5
1C7
330
1F
100
AcDbEntity
  8
0
  6
Continuous
 62
     7
370
    30
100
AcDbSpline
210
0.0
220
0.0
230
1.0
 70
     8
 71
     3
 72
     9
 73
     5
 74
     0
 42
0.000000001
 43
0.00000001
 40
0.0
 40
0.0
 40
0.0
 40
0.0
 40
0.2655783714906412
 40
1.0
 40
1.0
 40
1.0
 40
1.0
 10
6.25385411931119
 20
4.130874417861058
 30
0.0
 10
6.255190174276529
 20
4.128865729385105
 30
0.0
 10
6.260220911372473
 20
4.121302280356185
 30
0.0
 10
6.266639885718569
 20
4.113738831327264
 30
0.0
 10
6.27135411931119
 20
4.108184070774296
 30
0.0
  0
LINE
  5
1C8
330
1F
100
AcDbEntity
  8
0
  6
Continuous
 62
     7
370
    30
100
AcDbLine
 10
6.2713541193
 20
5.9016749297
 30
0.0
 11
6.2538541193
 21
5.9016749297
 31
0.0
  0
LINE
  5
1C9
330
1F
100
AcDbEntity
  8
0
  6
Continuous
 62
     7
370
    30
100
AcDbLine
 10
6.2713541193
 20
4.1081840708
 30
0.0
 11
6.2713541193
 21
5.9016749297
 31
0.0
  0
LINE
  5
1CA
330
1F
100
AcDbEntity
  8
0
  6
Continuous
 62
     7
370
    30
100
AcDbLine
 10
6.5544791193
 20
5.8079249297
 30
0.0
 11
6.5819791193
 21
5.8079249297
 31
0.0
  0
LINE
  5
1CB
330
1F
100
AcDbEntity
  8
0
  6
Continuous
 62
     7
370
    30
100
AcDbLine
 10
6.4266666193
 20
3.8391749297
 30
0.0
 11
6.5819791193
 21
4.1081840708
 31
0.0
  0
LINE
  5
1CC
330
1F
100
AcDbEntity
  8
0
  6
Continuous
 62
     7
370
    30
100
AcDbLine
 10
6.5232291193
 20
5.9016749297
 30
0.0
 11
6.2713541193
 21
5.9016749297
 31
0.0
  0
ARC
  5
1CD
330
1F
100
AcDbEntity
  8
0
  6
Continuous
 62
     7
370
    30
100
AcDbCircle
 10
6.5232291193
 20
5.8704249297
 30
0.0
 40
0.0312500000000009
100
AcDbArc
 50
0.0
 51
90.0
  0
LINE
  5
1CE
330
1F
100
AcDbEntity
  8
0
  6
Continuous
 62
     7
370
    30
100
AcDbLine
 10
6.5544791193
 20
5.8079249297
 30
0.0
 11
6.5544791193
 21
5.8704249297
 31
0.0
  0
CIRCLE
  5
1CF
330
1F
100
AcDbEntity
  8
0
  6
Continuous
 62
     7
370
    30
100
AcDbCircle
 10
6.4266666193
 20
5.2616749297
 30
0.0
 40
0.0312499999999991
  0
CIRCLE
  5
1D0
330
1F
100
AcDbEntity
  8
0
  6
Continuous
 62
     7
370
    30
100
AcDbCircle
 10
6.4266666193
 20
4.5116749297
 30
0.0
 40
0.0312499999999991
  0
CIRCLE
  5
1D1
330
1F
100
AcDbEntity
  8
0
  6
Continuous
 62
     7
370
    30
100
AcDbCircle
 10
6.4266666193
 20
4.7616749297
 30
0.0
 40
0.046875
  0
CIRCLE
  5
1D2
330
1F
100
AcDbEntity
  8
0
  6
Continuous
 62
     7
370
    30
100
AcDbCircle
 10
6.4266666193
 20
4.2616749297
 30
0.0
 40
0.046875
  0
LINE
  5
1D3
330
1F
100
AcDbEntity
  8
0
  6
Continuous
 62
     7
370
    30
100
AcDbLine
 10
6.2713541193
 20
4.1081840708
 30
0.0
 11
6.4266666193
 21
3.8391749297
 31
0.0
  0
INSERT
  5
1DF
330
1F
100
AcDbEntity
  8
BLANK-SIZE-2
100
AcDbBlockReference
  2
SW_CENTERMARKSYMBOL_3
 10
6.8669791193
 20
3.7160499297
 30
0.0
  0
INSERT
  5
1EB
330
1F
100
AcDbEntity
  8
BLANK-SIZE-2
100
AcDbBlockReference
  2
SW_CENTERMARKSYMBOL_4
 10
6.8357291193
 20
3.3410499297
 30
0.0
  0
INSERT
  5
1F7
330
1F
100
AcDbEntity
  8
BLANK-SIZE-2
100
AcDbBlockReference
  2
SW_CENTERMARKSYMBOL_5
 10
7.0857291193
 20
3.2160499297
 30
0.0
  0
LINE
  5
1F8
330
1F
100
AcDbEntity
  8
0
  6
Continuous
 62
     7
370
    30
100
AcDbLine
 10
4.0486114549
 20
9.9605693332
 30
0.0
 11
3.4236114549
 21
9.9605693332
 31
0.0
  0
ARC
  5
1F9
330
1F
100
AcDbEntity
  8
0
  6
Continuous
 62
     7
370
    30
100
AcDbCircle
 10
4.0486114549
 20
9.9293193332
 30
0.0
 40
0.0312500000000018
100
AcDbArc
 50
0.0
 51
90.0
  0
LINE
  5
1FA
330
1F
100
AcDbEntity
  8
0
  6
Continuous
 62
     7
370
    30
100
AcDbLine
 10
4.0798614549
 20
9.3218193332
 30
0.0
 11
4.0798614549
 21
9.9293193332
 31
0.0
  0
CIRCLE
  5
1FB
330
1F
100
AcDbEntity
  8
0
  6
Continuous
 62
     7
370
    30
100
AcDbCircle
 10
3.8611114549
 20
9.8511943332
 30
0.0
 40
0.0224999999999991
  0
CIRCLE
  5
1FC
330
1F
100
AcDbEntity
  8
0
  6
Continuous
 62
     7
370
    30
100
AcDbCircle
 10
3.6736114549
 20
9.7886943332
 30
0.0
 40
0.0225000000000009
  0
CIRCLE
  5
1FD
330
1F
100
AcDbEntity
  8
0
  6
Continuous
 62
     7
370
    30
100
AcDbCircle
 10
3.4861114549
 20
9.9136943332
 30
0.0
 40
0.0225000000000009
  0
LINE
  5
1FE
330
1F
100
AcDbEntity
  8
0
  6
Continuous
 62
     7
370
    30
100
AcDbLine
 10
3.3923614549
 20
9.9293193332
 30
0.0
 11
3.3923614549
 21
9.3218193332
 31
0.0
  0
ARC
  5
1FF
330
1F
100
AcDbEntity
  8
0
  6
Continuous
 62
     7
370
    30
100
AcDbCircle
 10
3.4236114549
 20
9.9293193332
 30
0.0
 40
0.0312500000000018
100
AcDbArc
 50
90.0
 51
180.0
  0
LINE
  5
200
330
1F
100
AcDbEntity
  8
0
  6
Continuous
 62
     7
370
    30
100
AcDbLine
 10
4.2511114549
 20
9.9293193332
 30
0.0
 11
4.2511114549
 21
9.3218193332
 31
0.0
  0
ARC
  5
201
330
1F
100
AcDbEntity
  8
0
  6
Continuous
 62
     7
370
    30
100
AcDbCircle
 10
4.2823614549
 20
9.9293193332
 30
0.0
 40
0.0312500000000018
100
AcDbArc
 50
90.0
 51
180.0
  0
LINE
  5
202
330
1F
100
AcDbEntity
  8
0
  6
Continuous
 62
     7
370
    30
100
AcDbLine
 10
4.9073614549
 20
9.9605693332
 30
0.0
 11
4.2823614549
 21
9.9605693332
 31
0.0
  0
ARC
  5
203
330
1F
100
AcDbEntity
  8
0
  6
Continuous
 62
     7
370
    30
100
AcDbCircle
 10
4.9073614549
 20
9.9293193332
 30
0.0
 40
0.03125
100
AcDbArc
 50
0.0
 51
90.0
  0
LINE
  5
204
330
1F
100
AcDbEntity
  8
0
  6
Continuous
 62
     7
370
    30
100
AcDbLine
 10
4.9386114549
 20
9.3218193332
 30
0.0
 11
4.9386114549
 21
9.9293193332
 31
0.0
  0
CIRCLE
  5
205
330
1F
100
AcDbEntity
  8
0
  6
Continuous
 62
     7
370
    30
100
AcDbCircle
 10
4.4698614549
 20
9.8824443332
 30
0.0
 40
0.0224999999999991
  0
CIRCLE
  5
206
330
1F
100
AcDbEntity
  8
0
  6
Continuous
 62
     7
370
    30
100
AcDbCircle
 10
4.6573614549
 20
9.8199443332
 30
0.0
 40
0.0225000000000009
  0
CIRCLE
  5
207
330
1F
100
AcDbEntity
  8
0
  6
Continuous
 62
     7
370
    30
100
AcDbCircle
 10
4.8448614549
 20
9.9136943332
 30
0.0
 40
0.0225000000000009
  0
LINE
  5
208
330
1F
100
AcDbEntity
  8
0
  6
Continuous
 62
     7
370
    30
100
AcDbLine
 10
4.0798614549
 20
9.2868193332
 30
0.0
 11
4.0798614549
 21
9.3218193332
 31
0.0
  0
LINE
  5
209
330
1F
100
AcDbEntity
  8
0
  6
Continuous
 62
     7
370
    30
100
AcDbLine
 10
3.3923614549
 20
9.2868193332
 30
0.0
 11
4.0798614549
 21
9.2868193332
 31
0.0
  0
LINE
  5
20A
330
1F
100
AcDbEntity
  8
0
  6
Continuous
 62
     7
370
    30
100
AcDbLine
 10
3.3923614549
 20
9.3218193332
 30
0.0
 11
3.3923614549
 21
9.2868193332
 31
0.0
  0
LINE
  5
20B
330
1F
100
AcDbEntity
  8
0
  6
Continuous
 62
     7
370
    30
100
AcDbLine
 10
4.2511114549
 20
9.3218193332
 30
0.0
 11
4.2511114549
 21
9.2868193332
 31
0.0
  0
LINE
  5
20C
330
1F
100
AcDbEntity
  8
0
  6
Continuous
 62
     7
370
    30
100
AcDbLine
 10
4.2511114549
 20
9.2868193332
 30
0.0
 11
4.9386114549
 21
9.2868193332
 31
0.0
  0
LINE
  5
20D
330
1F
100
AcDbEntity
  8
0
  6
Continuous
 62
     7
370
    30
100
AcDbLine
 10
4.9386114549
 20
9.2868193332
 30
0.0
 11
4.9386114549
 21
9.3218193332
 31
0.0
  0
LINE
  5
20E
330
1F
100
AcDbEntity
  8
0
  6
Continuous
 62
     7
370
    30
100
AcDbLine
 10
4.1111114549
 20
9.3043193332
 30
0.0
 11
4.1111114549
 21
9.2868193332
 31
0.0
  0
LINE
  5
20F
330
1F
100
AcDbEntity
  8
0
  6
Continuous
 62
     7
370
    30
100
AcDbLine
 10
4.0798614549
 20
9.3043193332
 30
0.0
 11
4.1111114549
 21
9.3043193332
 31
0.0
  0
LINE
  5
210
330
1F
100
AcDbEntity
  8
0
  6
Continuous
 62
     7
370
    30
100
AcDbLine
 10
4.1111114549
 20
9.2868193332
 30
0.0
 11
4.0798614549
 21
9.2868193332
 31
0.0
  0
LINE
  5
211
330
1F
100
AcDbEntity
  8
0
  6
Continuous
 62
     7
370
    30
100
AcDbLine
 10
4.2198614549
 20
9.2868193332
 30
0.0
 11
4.2198614549
 21
9.3043193332
 31
0.0
  0
LINE
  5
212
330
1F
100
AcDbEntity
  8
0
  6
Continuous
 62
     7
370
    30
100
AcDbLine
 10
4.2198614549
 20
9.3043193332
 30
0.0
 11
4.2511114549
 21
9.3043193332
 31
0.0
  0
LINE
  5
213
330
1F
100
AcDbEntity
  8
0
  6
Continuous
 62
     7
370
    30
100
AcDbLine
 10
4.2511114549
 20
9.2868193332
 30
0.0
 11
4.2198614549
 21
9.2868193332
 31
0.0
  0
LINE
  5
214
330
1F
100
AcDbEntity
  8
0
  6
Continuous
 62
     7
370
    30
100
AcDbLine
 10
4.1248614549
 20
9.2868193332
 30
0.0
 11
4.1248614549
 21
9.3043193332
 31
0.0
  0
LINE
  5
215
330
1F
100
AcDbEntity
  8
0
  6
Continuous
 62
     7
370
    30
100
AcDbLine
 10
4.1111114549
 20
9.3043193332
 30
0.0
 11
4.1248614549
 21
9.3043193332
 31
0.0
  0
LINE
  5
216
330
1F
100
AcDbEntity
  8
0
  6
Continuous
 62
     7
370
    30
100
AcDbLine
 10
4.1111114549
 20
9.2868193332
 30
0.0
 11
4.1248614549
 21
9.2868193332
 31
0.0
  0
LINE
  5
217
330
1F
100
AcDbEntity
  8
0
  6
Continuous
 62
     7
370
    30
100
AcDbLine
 10
4.1598614549
 20
9.2693193332
 30
0.0
 11
4.1423614549
 21
9.2693193332
 31
0.0
  0
LINE
  5
218
330
1F
100
AcDbEntity
  8
0
  6
Continuous
 62
     7
370
    30
100
AcDbLine
 10
4.1423614549
 20
9.0174443332
 30
0.0
 11
4.1598614549
 21
9.0174443332
 31
0.0
  0
LINE
  5
219
330
1F
100
AcDbEntity
  8
0
  6
Continuous
 62
     7
370
    30
100
AcDbLine
 10
4.1423614549
 20
9.0174443332
 30
0.0
 11
4.1423614549
 21
9.2693193332
 31
0.0
  0
LINE
  5
21A
330
1F
100
AcDbEntity
  8
0
  6
Continuous
 62
     7
370
    30
100
AcDbLine
 10
4.1598614549
 20
9.0174443332
 30
0.0
 11
4.1598614549
 21
9.2693193332
 31
0.0
  0
LINE
  5
21B
330
1F
100
AcDbEntity
  8
0
  6
Continuous
 62
     7
370
    30
100
AcDbLine
 10
4.1598614549
 20
8.9861943332
 30
0.0
 11
4.1423614549
 21
8.9861943332
 31
0.0
  0
LINE
  5
21C
330
1F
100
AcDbEntity
  8
0
  6
Continuous
 62
     7
370
    30
100
AcDbLine
 10
4.1423614549
 20
8.9861943332
 30
0.0
 11
4.1423614549
 21
9.0174443332
 31
0.0
  0
LINE
  5
21D
330
1F
100
AcDbEntity
  8
0
  6
Continuous
 62
     7
370
    30
100
AcDbLine
 10
4.1598614549
 20
9.0174443332
 30
0.0
 11
4.1598614549
 21
8.9861943332
 31
0.0
  0
ARC
  5
21E
330
1F
100
AcDbEntity
  8
0
  6
Continuous
 62
     7
370
    30
100
AcDbCircle
 10
4.1248614549
 20
9.2693193332
 30
0.0
 40
0.0350000000000001
100
AcDbArc
 50
0.0
 51
90.0
  0
ARC
  5
21F
330
1F
100
AcDbEntity
  8
0
  6
Continuous
 62
     7
370
    30
100
AcDbCircle
 10
4.1248614549
 20
9.2693193332
 30
0.0
 40
0.0175000000000001
100
AcDbArc
 50
0.0
 51
90.0
  0
LINE
  5
220
330
1F
100
AcDbEntity
  8
0
  6
Continuous
 62
     7
370
    30
100
AcDbLine
 10
4.2061114549
 20
9.2868193332
 30
0.0
 11
4.2061114549
 21
9.3043193332
 31
0.0
  0
LINE
  5
221
330
1F
100
AcDbEntity
  8
0
  6
Continuous
 62
     7
370
    30
100
AcDbLine
 10
4.2061114549
 20
9.3043193332
 30
0.0
 11
4.2198614549
 21
9.3043193332
 31
0.0
  0
LINE
  5
222
330
1F
100
AcDbEntity
  8
0
  6
Continuous
 62
     7
370
    30
100
AcDbLine
 10
4.2061114549
 20
9.2868193332
 30
0.0
 11
4.2198614549
 21
9.2868193332
 31
0.0
  0
LINE
  5
223
330
1F
100
AcDbEntity
  8
0
  6
Continuous
 62
     7
370
    30
100
AcDbLine
 10
4.1711114549
 20
9.2693193332
 30
0.0
 11
4.1886114549
 21
9.2693193332
 31
0.0
  0
LINE
  5
224
330
1F
100
AcDbEntity
  8
0
  6
Continuous
 62
     7
370
    30
100
AcDbLine
 10
4.1711114549
 20
9.0174443332
 30
0.0
 11
4.1886114549
 21
9.0174443332
 31
0.0
  0
LINE
  5
225
330
1F
100
AcDbEntity
  8
0
  6
Continuous
 62
     7
370
    30
100
AcDbLine
 10
4.1711114549
 20
9.2693193332
 30
0.0
 11
4.1711114549
 21
9.0174443332
 31
0.0
  0
LINE
  5
226
330
1F
100
AcDbEntity
  8
0
  6
Continuous
 62
     7
370
    30
100
AcDbLine
 10
4.1886114549
 20
9.2693193332
 30
0.0
 11
4.1886114549
 21
9.0174443332
 31
0.0
  0
ARC
  5
227
330
1F
100
AcDbEntity
  8
0
  6
Continuous
 62
     7
370
    30
100
AcDbCircle
 10
4.2061114549
 20
9.2693193332
 30
0.0
 40
0.0175000000000001
100
AcDbArc
 50
90.0
 51
180.0
  0
ARC
  5
228
330
1F
100
AcDbEntity
  8
0
  6
Continuous
 62
     7
370
    30
100
AcDbCircle
 10
4.2061114549
 20
9.2693193332
 30
0.0
 40
0.0350000000000001
100
AcDbArc
 50
90.0
 51
180.0
  0
LINE
  5
229
330
1F
100
AcDbEntity
  8
0
  6
Continuous
 62
     7
370
    30
100
AcDbLine
 10
4.1886114549
 20
8.9861943332
 30
0.0
 11
4.1711114549
 21
8.9861943332
 31
0.0
  0
LINE
  5
22A
330
1F
100
AcDbEntity
  8
0
  6
Continuous
 62
     7
370
    30
100
AcDbLine
 10
4.1711114549
 20
8.9861943332
 30
0.0
 11
4.1711114549
 21
9.0174443332
 31
0.0
  0
LINE
  5
22B
330
1F
100
AcDbEntity
  8
0
  6
Continuous
 62
     7
370
    30
100
AcDbLine
 10
4.1886114549
 20
9.0174443332
 30
0.0
 11
4.1886114549
 21
8.9861943332
 31
0.0
  0
LINE
  5
22C
330
1F
100
AcDbEntity
  8
0
  6
Continuous
 62
     7
370
    30
100
AcDbLine
 10
4.1248614549
 20
8.9236943332
 30
0.0
 11
4.1248614549
 21
8.9411943332
 31
0.0
  0
LINE
  5
22D
330
1F
100
AcDbEntity
  8
0
  6
Continuous
 62
     7
370
    30
100
AcDbLine
 10
4.1423614549
 20
8.9586943332
 30
0.0
 11
4.1598614549
 21
8.9586943332
 31
0.0
  0
ARC
  5
22E
330
1F
100
AcDbEntity
  8
0
  6
Continuous
 62
     7
370
    30
100
AcDbCircle
 10
4.1248614549
 20
8.9586943332
 30
0.0
 40
0.0175000000000001
100
AcDbArc
 50
270.0
 51
0.0
  0
ARC
  5
22F
330
1F
100
AcDbEntity
  8
0
  6
Continuous
 62
     7
370
    30
100
AcDbCircle
 10
4.1248614549
 20
8.9586943332
 30
0.0
 40
0.0350000000000001
100
AcDbArc
 50
270.0
 51
0.0
  0
LINE
  5
230
330
1F
100
AcDbEntity
  8
0
  6
Continuous
 62
     7
370
    30
100
AcDbLine
 10
4.1423614549
 20
8.9861943332
 30
0.0
 11
4.1423614549
 21
8.9586943332
 31
0.0
  0
LINE
  5
231
330
1F
100
AcDbEntity
  8
0
  6
Continuous
 62
     7
370
    30
100
AcDbLine
 10
4.1598614549
 20
8.9861943332
 30
0.0
 11
4.1598614549
 21
8.9586943332
 31
0.0
  0
LINE
  5
232
330
1F
100
AcDbEntity
  8
0
  6
Continuous
 62
     7
370
    30
100
AcDbLine
 10
3.8998614549
 20
8.9061943332
 30
0.0
 11
3.8823614549
 21
8.9061943332
 31
0.0
  0
LINE
  5
233
330
1F
100
AcDbEntity
  8
0
  6
Continuous
 62
     7
370
    30
100
AcDbLine
 10
3.9173614549
 20
8.9236943332
 30
0.0
 11
3.9173614549
 21
8.9411943332
 31
0.0
  0
ARC
  5
234
330
1F
100
AcDbEntity
  8
0
  6
Continuous
 62
     7
370
    30
100
AcDbCircle
 10
3.9173614549
 20
8.9061943332
 30
0.0
 40
0.0350000000000001
100
AcDbArc
 50
90.0
 51
180.0
  0
ARC
  5
235
330
1F
100
AcDbEntity
  8
0
  6
Continuous
 62
     7
370
    30
100
AcDbCircle
 10
3.9173614549
 20
8.9061943332
 30
0.0
 40
0.0175000000000001
100
AcDbArc
 50
90.0
 51
180.0
  0
LINE
  5
236
330
1F
100
AcDbEntity
  8
0
  6
Continuous
 62
     7
370
    30
100
AcDbLine
 10
3.9173614549
 20
8.9411943332
 30
0.0
 11
4.1248614549
 21
8.9411943332
 31
0.0
  0
LINE
  5
237
330
1F
100
AcDbEntity
  8
0
  6
Continuous
 62
     7
370
    30
100
AcDbLine
 10
3.9173614549
 20
8.9236943332
 30
0.0
 11
4.1248614549
 21
8.9236943332
 31
0.0
  0
LINE
  5
238
330
1F
100
AcDbEntity
  8
0
  6
Continuous
 62
     7
370
    30
100
AcDbLine
 10
3.8998614549
 20
8.7900484074
 30
0.0
 11
3.8998614549
 21
8.9061943332
 31
0.0
  0
LINE
  5
239
330
1F
100
AcDbEntity
  8
0
  6
Continuous
 62
     7
370
    30
100
AcDbLine
 10
3.8823614549
 20
8.7900484074
 30
0.0
 11
3.8998614549
 21
8.7900484074
 31
0.0
  0
LINE
  5
23A
330
1F
100
AcDbEntity
  8
0
  6
Continuous
 62
     7
370
    30
100
AcDbLine
 10
3.8823614549
 20
8.7900484074
 30
0.0
 11
3.8823614549
 21
8.9061943332
 31
0.0
  0
LINE
  5
23B
330
1F
100
AcDbEntity
  8
0
  6
Continuous
 62
     7
370
    30
100
AcDbLine
 10
4.4486114549
 20
8.7603278913
 30
0.0
 11
4.4311114549
 21
8.7603278913
 31
0.0
  0
LINE
  5
23C
330
1F
100
AcDbEntity
  8
0
  6
Continuous
 62
     7
370
    30
100
AcDbLine
 10
4.4311114549
 20
8.7603278913
 30
0.0
 11
4.4311114549
 21
8.7900484074
 31
0.0
  0
LINE
  5
23D
330
1F
100
AcDbEntity
  8
0
  6
Continuous
 62
     7
370
    30
100
AcDbLine
 10
4.4311114549
 20
8.7900484074
 30
0.0
 11
4.4486114549
 21
8.7900484074
 31
0.0
  0
LINE
  5
23E
330
1F
100
AcDbEntity
  8
0
  6
Continuous
 62
     7
370
    30
100
AcDbLine
 10
4.4486114549
 20
8.7900484074
 30
0.0
 11
4.4486114549
 21
8.7603278913
 31
0.0
  0
LINE
  5
23F
330
1F
100
AcDbEntity
  8
0
  6
Continuous
 62
     7
370
    30
100
AcDbLine
 10
3.8998614549
 20
8.7603278913
 30
0.0
 11
3.8823614549
 21
8.7603278913
 31
0.0
  0
LINE
  5
240
330
1F
100
AcDbEntity
  8
0
  6
Continuous
 62
     7
370
    30
100
AcDbLine
 10
3.8998614549
 20
8.7900484074
 30
0.0
 11
3.8998614549
 21
8.7603278913
 31
0.0
  0
LINE
  5
241
330
1F
100
AcDbEntity
  8
0
  6
Continuous
 62
     7
370
    30
100
AcDbLine
 10
3.8823614549
 20
8.7603278913
 30
0.0
 11
3.8823614549
 21
8.7900484074
 31
0.0
  0
LINE
  5
242
330
1F
100
AcDbEntity
  8
0
  6
Continuous
 62
     7
370
    30
100
AcDbLine
 10
4.4311114549
 20
8.9061943332
 30
0.0
 11
4.4486114549
 21
8.9061943332
 31
0.0
  0
LINE
  5
243
330
1F
100
AcDbEntity
  8
0
  6
Continuous
 62
     7
370
    30
100
AcDbLine
 10
4.4311114549
 20
8.9061943332
 30
0.0
 11
4.4311114549
 21
8.7900484074
 31
0.0
  0
LINE
  5
244
330
1F
100
AcDbEntity
  8
0
  6
Continuous
 62
     7
370
    30
100
AcDbLine
 10
4.4486114549
 20
8.9061943332
 30
0.0
 11
4.4486114549
 21
8.7900484074
 31
0.0
  0
LINE
  5
245
330
1F
100
AcDbEntity
  8
0
  6
Continuous
 62
     7
370
    30
100
AcDbLine
 10
4.1886114549
 20
8.9586943332
 30
0.0
 11
4.1711114549
 21
8.9586943332
 31
0.0
  0
LINE
  5
246
330
1F
100
AcDbEntity
  8
0
  6
Continuous
 62
     7
370
    30
100
AcDbLine
 10
4.2061114549
 20
8.9236943332
 30
0.0
 11
4.2061114549
 21
8.9411943332
 31
0.0
  0
ARC
  5
247
330
1F
100
AcDbEntity
  8
0
  6
Continuous
 62
     7
370
    30
100
AcDbCircle
 10
4.2061114549
 20
8.9586943332
 30
0.0
 40
0.0175000000000001
100
AcDbArc
 50
180.0
 51
270.0
  0
ARC
  5
248
330
1F
100
AcDbEntity
  8
0
  6
Continuous
 62
     7
370
    30
100
AcDbCircle
 10
4.2061114549
 20
8.9586943332
 30
0.0
 40
0.0350000000000001
100
AcDbArc
 50
180.0
 51
270.0
  0
LINE
  5
249
330
1F
100
AcDbEntity
  8
0
  6
Continuous
 62
     7
370
    30
100
AcDbLine
 10
4.1711114549
 20
8.9586943332
 30
0.0
 11
4.1711114549
 21
8.9861943332
 31
0.0
  0
LINE
  5
24A
330
1F
100
AcDbEntity
  8
0
  6
Continuous
 62
     7
370
    30
100
AcDbLine
 10
4.1886114549
 20
8.9586943332
 30
0.0
 11
4.1886114549
 21
8.9861943332
 31
0.0
  0
LINE
  5
24B
330
1F
100
AcDbEntity
  8
0
  6
Continuous
 62
     7
370
    30
100
AcDbLine
 10
4.4136114549
 20
8.9236943332
 30
0.0
 11
4.4136114549
 21
8.9411943332
 31
0.0
  0
LINE
  5
24C
330
1F
100
AcDbEntity
  8
0
  6
Continuous
 62
     7
370
    30
100
AcDbLine
 10
4.2061114549
 20
8.9411943332
 30
0.0
 11
4.4136114549
 21
8.9411943332
 31
0.0
  0
LINE
  5
24D
330
1F
100
AcDbEntity
  8
0
  6
Continuous
 62
     7
370
    30
100
AcDbLine
 10
4.2061114549
 20
8.9236943332
 30
0.0
 11
4.4136114549
 21
8.9236943332
 31
0.0
  0
ARC
  5
24E
330
1F
100
AcDbEntity
  8
0
  6
Continuous
 62
     7
370
    30
100
AcDbCircle
 10
4.4136114549
 20
8.9061943332
 30
0.0
 40
0.0175000000000001
100
AcDbArc
 50
360.0
 51
90.0
  0
ARC
  5
24F
330
1F
100
AcDbEntity
  8
0
  6
Continuous
 62
     7
370
    30
100
AcDbCircle
 10
4.4136114549
 20
8.9061943332
 30
0.0
 40
0.0350000000000001
100
AcDbArc
 50
0.0
 51
90.0
  0
LINE
  5
250
330
1F
100
AcDbEntity
  8
0
  6
Continuous
 62
     7
370
    30
100
AcDbLine
 10
3.8823614549
 20
8.362723817
 30
0.0
 11
3.8998614549
 21
8.362723817
 31
0.0
  0
LINE
  5
251
330
1F
100
AcDbEntity
  8
0
  6
Continuous
 62
     7
370
    30
100
AcDbLine
 10
3.8998614549
 20
8.7603278913
 30
0.0
 11
3.8998614549
 21
8.362723817
 31
0.0
  0
LINE
  5
252
330
1F
100
AcDbEntity
  8
0
  6
Continuous
 62
     7
370
    30
100
AcDbLine
 10
3.8823614549
 20
8.7603278913
 30
0.0
 11
3.8823614549
 21
8.362723817
 31
0.0
  0
LINE
  5
253
330
1F
100
AcDbEntity
  8
0
  6
Continuous
 62
     7
370
    30
100
AcDbLine
 10
4.4311114549
 20
8.362723817
 30
0.0
 11
4.4486114549
 21
8.362723817
 31
0.0
  0
LINE
  5
254
330
1F
100
AcDbEntity
  8
0
  6
Continuous
 62
     7
370
    30
100
AcDbLine
 10
4.4311114549
 20
8.362723817
 30
0.0
 11
4.4311114549
 21
8.7603278913
 31
0.0
  0
LINE
  5
255
330
1F
100
AcDbEntity
  8
0
  6
Continuous
 62
     7
370
    30
100
AcDbLine
 10
4.4486114549
 20
8.362723817
 30
0.0
 11
4.4486114549
 21
8.7603278913
 31
0.0
  0
LINE
  5
256
330
1F
100
AcDbEntity
  8
0
  6
Continuous
 62
     7
370
    30
100
AcDbLine
 10
4.4486114549
 20
8.3611943332
 30
0.0
 11
4.4311114549
 21
8.3611943332
 31
0.0
  0
LINE
  5
257
330
1F
100
AcDbEntity
  8
0
  6
Continuous
 62
     7
370
    30
100
AcDbLine
 10
4.4311114549
 20
8.3611943332
 30
0.0
 11
4.4311114549
 21
8.362723817
 31
0.0
  0
LINE
  5
258
330
1F
100
AcDbEntity
  8
0
  6
Continuous
 62
     7
370
    30
100
AcDbLine
 10
4.4486114549
 20
8.362723817
 30
0.0
 11
4.4486114549
 21
8.3611943332
 31
0.0
  0
LINE
  5
259
330
1F
100
AcDbEntity
  8
0
  6
Continuous
 62
     7
370
    30
100
AcDbLine
 10
3.8998614549
 20
8.3611943332
 30
0.0
 11
3.8823614549
 21
8.3611943332
 31
0.0
  0
LINE
  5
25A
330
1F
100
AcDbEntity
  8
0
  6
Continuous
 62
     7
370
    30
100
AcDbLine
 10
3.8998614549
 20
8.362723817
 30
0.0
 11
3.8998614549
 21
8.3611943332
 31
0.0
  0
LINE
  5
25B
330
1F
100
AcDbEntity
  8
0
  6
Continuous
 62
     7
370
    30
100
AcDbLine
 10
3.8823614549
 20
8.3611943332
 30
0.0
 11
3.8823614549
 21
8.362723817
 31
0.0
  0
LINE
  5
25C
330
1F
100
AcDbEntity
  8
0
  6
Continuous
 62
     7
370
    30
100
AcDbLine
 10
4.4136114549
 20
8.8611943332
 30
0.0
 11
4.4311114549
 21
8.8611943332
 31
0.0
  0
LINE
  5
25D
330
1F
100
AcDbEntity
  8
0
  6
Continuous
 62
     7
370
    30
100
AcDbLine
 10
4.4311114549
 20
8.3611943332
 30
0.0
 11
4.4136114549
 21
8.3611943332
 31
0.0
  0
LINE
  5
25E
330
1F
100
AcDbEntity
  8
0
  6
Continuous
 62
     7
370
    30
100
AcDbLine
 10
4.4136114549
 20
8.8611943332
 30
0.0
 11
4.4136114549
 21
8.3611943332
 31
0.0
  0
LINE
  5
25F
330
1F
100
AcDbEntity
  8
0
  6
Continuous
 62
     7
370
    30
100
AcDbLine
 10
3.9173614549
 20
8.3611943332
 30
0.0
 11
3.9173614549
 21
8.8611943332
 31
0.0
  0
LINE
  5
260
330
1F
100
AcDbEntity
  8
0
  6
Continuous
 62
     7
370
    30
100
AcDbLine
 10
3.8998614549
 20
8.8611943332
 30
0.0
 11
3.9173614549
 21
8.8611943332
 31
0.0
  0
LINE
  5
261
330
1F
100
AcDbEntity
  8
0
  6
Continuous
 62
     7
370
    30
100
AcDbLine
 10
3.9173614549
 20
8.3611943332
 30
0.0
 11
3.8998614549
 21
8.3611943332
 31
0.0
  0
LINE
  5
262
330
1F
100
AcDbEntity
  8
0
  6
Continuous
 62
     7
370
    30
100
AcDbLine
 10
4.4136114549
 20
8.8611943332
 30
0.0
 11
3.9173614549
 21
8.8611943332
 31
0.0
  0
LINE
  5
263
330
1F
100
AcDbEntity
  8
0
  6
Continuous
 62
     7
370
    30
100
AcDbLine
 10
3.9173614549
 20
8.3611943332
 30
0.0
 11
4.4136114549
 21
8.3611943332
 31
0.0
  0
INSERT
  5
26F
330
1F
100
AcDbEntity
  8
BLANK-SIZE-2
100
AcDbBlockReference
  2
SW_CENTERMARKSYMBOL_6
 10
3.8611114549
 20
9.8511943332
 30
0.0
  0
INSERT
  5
27B
330
1F
100
AcDbEntity
  8
BLANK-SIZE-2
100
AcDbBlockReference
  2
SW_CENTERMARKSYMBOL_7
 10
3.6736114549
 20
9.7886943332
 30
0.0
  0
INSERT
  5
287
330
1F
100
AcDbEntity
  8
BLANK-SIZE-2
100
AcDbBlockReference
  2
SW_CENTERMARKSYMBOL_8
 10
4.4698614549
 20
9.8824443332
 30
0.0
  0
INSERT
  5
293
330
1F
100
AcDbEntity
  8
BLANK-SIZE-2
100
AcDbBlockReference
  2
SW_CENTERMARKSYMBOL_9
 10
4.6573614549
 20
9.8199443332
 30
0.0
  0
ENDSEC
  0
SECTION
  2
OBJECTS
  0
DICTIONARY
  5
C
330
0
100
AcDbDictionary
281
     1
  3
ACAD_GROUP
350
D
  3
ACAD_LAYOUT
350
1A
  3
ACAD_MLINESTYLE
350
17
  3
ACAD_PLOTSETTINGS
350
19
  3
ACAD_PLOTSTYLENAME
350
E
  3
ACAD_SCALELIST
350
47
  0
DICTIONARY
  5
D
102
{ACAD_REACTORS
330
C
102
}
330
C
100
AcDbDictionary
281
     1
  0
DICTIONARY
  5
1A
102
{ACAD_REACTORS
330
C
102
}
330
C
100
AcDbDictionary
281
     1
  3
Layout1
350
1E
  3
Layout2
350
26
  3
Model
350
22
  0
DICTIONARY
  5
17
102
{ACAD_REACTORS
330
C
102
}
330
C
100
AcDbDictionary
281
     1
  3
Standard
350
18
  0
DICTIONARY
  5
19
102
{ACAD_REACTORS
330
C
102
}
330
C
100
AcDbDictionary
281
     1
  0
ACDBDICTIONARYWDFLT
  5
E
102
{ACAD_REACTORS
330
C
102
}
330
C
100
AcDbDictionary
281
     1
  3
Normal
350
F
100
AcDbDictionaryWithDefault
340
F
  0
DICTIONARY
  5
47
102
{ACAD_REACTORS
330
C
102
}
330
C
100
AcDbDictionary
281
     1
  3
A0
350
48
  3
A1
350
49
  3
A2
350
4A
  3
A3
350
4B
  3
A4
350
4C
  3
A5
350
4D
  3
A6
350
4E
  3
A7
350
4F
  3
A8
350
50
  3
A9
350
51
  3
B0
350
52
  3
B1
350
53
  3
B2
350
54
  3
B3
350
55
  3
B4
350
56
  3
B5
350
57
  3
B6
350
58
  3
B7
350
59
  3
B8
350
5A
  3
B9
350
5B
  3
C0
350
5C
  3
C1
350
5D
  3
C2
350
5E
  3
C3
350
5F
  3
C4
350
60
  3
C5
350
61
  3
C6
350
62
  3
C7
350
63
  3
C8
350
64
  3
C9
350
65
  3
D0
350
66
  3
D1
350
67
  3
D2
350
68
  0
LAYOUT
  5
1E
102
{ACAD_REACTORS
330
1A
102
}
330
1A
100
AcDbPlotSettings
  1

  2
none_device
  4

  6

 40
0.0
 41
0.0
 42
0.0
 43
0.0
 44
0.0
 45
0.0
 46
0.0
 47
0.0
 48
0.0
 49
0.0
140
0.0
141
0.0
142
1.0
143
1.0
 70
   688
 72
     0
 73
     0
 74
     5
  7

 75
    16
147
1.0
148
0.0
149
0.0
100
AcDbLayout
  1
Layout1
 70
     1
 71
     1
 10
0.0
 20
0.0
 11
12.0
 21
9.0
 12
0.0
 22
0.0
 32
0.0
 14
1.0000000000E+20
 24
1.0000000000E+20
 34
1.0000000000E+20
 15
-1.0000000000E+20
 25
-1.0000000000E+20
 35
-1.0000000000E+20
146
0.0
 13
0.0
 23
0.0
 33
0.0
 16
1.0
 26
0.0
 36
0.0
 17
0.0
 27
1.0
 37
0.0
 76
     0
330
1B
  0
LAYOUT
  5
26
102
{ACAD_REACTORS
330
1A
102
}
330
1A
100
AcDbPlotSettings
  1

  2
none_device
  4

  6

 40
0.0
 41
0.0
 42
0.0
 43
0.0
 44
0.0
 45
0.0
 46
0.0
 47
0.0
 48
0.0
 49
0.0
140
0.0
141
0.0
142
1.0
143
1.0
 70
   688
 72
     0
 73
     0
 74
     5
  7

 75
    16
147
1.0
148
0.0
149
0.0
100
AcDbLayout
  1
Layout2
 70
     1
 71
     2
 10
0.0
 20
0.0
 11
0.0
 21
0.0
 12
0.0
 22
0.0
 32
0.0
 14
0.0
 24
0.0
 34
0.0
 15
0.0
 25
0.0
 35
0.0
146
0.0
 13
0.0
 23
0.0
 33
0.0
 16
1.0
 26
0.0
 36
0.0
 17
0.0
 27
1.0
 37
0.0
 76
     0
330
23
  0
LAYOUT
  5
22
102
{ACAD_REACTORS
330
1A
102
}
330
1A
100
AcDbPlotSettings
  1

  2
none_device
  4
Letter_(8.50_x_11.00_Inches)
  6

 40
6.35
 41
6.35
 42
6.35000508
 43
6.35000508
 44
215.9
 45
279.4
 46
0.0
 47
0.0
 48
0.0
 49
0.0
140
0.0
141
0.0
142
1.0
143
1.0
 70
  1712
 72
     0
 73
     0
 74
     0
  7

 75
     0
147
1.0
148
0.0
149
0.0
100
AcDbLayout
  1
Model
 70
     1
 71
     0
 10
0.0
 20
0.0
 11
8.5
 21
11.0
 12
0.0
 22
0.0
 32
0.0
 14
0.0
 24
0.0
 34
0.0
 15
8.5
 25
11.0
 35
0.0
146
0.0
 13
0.0
 23
0.0
 33
0.0
 16
1.0
 26
0.0
 36
0.0
 17
0.0
 27
1.0
 37
0.0
 76
     0
330
1F
331
29
  0
MLINESTYLE
  5
18
102
{ACAD_REACTORS
330
17
102
}
330
17
100
AcDbMlineStyle
  2
Standard
 70
     0
  3

 62
   256
 51
90.0
 52
90.0
 71
     2
 49
0.5
 62
   256
  6
BYLAYER
 49
-0.5
 62
   256
  6
BYLAYER
  0
ACDBPLACEHOLDER
  5
F
102
{ACAD_REACTORS
330
E
102
}
330
E
  0
SCALE
  5
48
102
{ACAD_REACTORS
330
47
102
}
330
47
100
AcDbScale
 70
     0
300
1:1
140
1.0
141
1.0
290
     1
  0
SCALE
  5
49
102
{ACAD_REACTORS
330
47
102
}
330
47
100
AcDbScale
 70
     0
300
1:2
140
1.0
141
2.0
290
     0
  0
SCALE
  5
4A
102
{ACAD_REACTORS
330
47
102
}
330
47
100
AcDbScale
 70
     0
300
1:4
140
1.0
141
4.0
290
     0
  0
SCALE
  5
4B
102
{ACAD_REACTORS
330
47
102
}
330
47
100
AcDbScale
 70
     0
300
1:5
140
1.0
141
5.0
290
     0
  0
SCALE
  5
4C
102
{ACAD_REACTORS
330
47
102
}
330
47
100
AcDbScale
 70
     0
300
1:8
140
1.0
141
8.0
290
     0
  0
SCALE
  5
4D
102
{ACAD_REACTORS
330
47
102
}
330
47
100
AcDbScale
 70
     0
300
1:10
140
1.0
141
10.0
290
     0
  0
SCALE
  5
4E
102
{ACAD_REACTORS
330
47
102
}
330
47
100
AcDbScale
 70
     0
300
1:16
140
1.0
141
16.0
290
     0
  0
SCALE
  5
4F
102
{ACAD_REACTORS
330
47
102
}
330
47
100
AcDbScale
 70
     0
300
1:20
140
1.0
141
20.0
290
     0
  0
SCALE
  5
50
102
{ACAD_REACTORS
330
47
102
}
330
47
100
AcDbScale
 70
     0
300
1:30
140
1.0
141
30.0
290
     0
  0
SCALE
  5
51
102
{ACAD_REACTORS
330
47
102
}
330
47
100
AcDbScale
 70
     0
300
1:40
140
1.0
141
40.0
290
     0
  0
SCALE
  5
52
102
{ACAD_REACTORS
330
47
102
}
330
47
100
AcDbScale
 70
     0
300
1:50
140
1.0
141
50.0
290
     0
  0
SCALE
  5
53
102
{ACAD_REACTORS
330
47
102
}
330
47
100
AcDbScale
 70
     0
300
1:100
140
1.0
141
100.0
290
     0
  0
SCALE
  5
54
102
{ACAD_REACTORS
330
47
102
}
330
47
100
AcDbScale
 70
     0
300
2:1
140
2.0
141
1.0
290
     0
  0
SCALE
  5
55
102
{ACAD_REACTORS
330
47
102
}
330
47
100
AcDbScale
 70
     0
300
4:1
140
4.0
141
1.0
290
     0
  0
SCALE
  5
56
102
{ACAD_REACTORS
330
47
102
}
330
47
100
AcDbScale
 70
     0
300
8:1
140
8.0
141
1.0
290
     0
  0
SCALE
  5
57
102
{ACAD_REACTORS
330
47
102
}
330
47
100
AcDbScale
 70
     0
300
10:1
140
10.0
141
1.0
290
     0
  0
SCALE
  5
58
102
{ACAD_REACTORS
330
47
102
}
330
47
100
AcDbScale
 70
     0
300
100:1
140
100.0
141
1.0
290
     0
  0
SCALE
  5
59
102
{ACAD_REACTORS
330
47
102
}
330
47
100
AcDbScale
 70
     0
300
1/128" = 1'-0"
140
0.0078125
141
12.0
290
     0
  0
SCALE
  5
5A
102
{ACAD_REACTORS
330
47
102
}
330
47
100
AcDbScale
 70
     0
300
1/64" = 1'-0"
140
0.015625
141
12.0
290
     0
  0
SCALE
  5
5B
102
{ACAD_REACTORS
330
47
102
}
330
47
100
AcDbScale
 70
     0
300
1/32" = 1'-0"
140
0.03125
141
12.0
290
     0
  0
SCALE
  5
5C
102
{ACAD_REACTORS
330
47
102
}
330
47
100
AcDbScale
 70
     0
300
1/16" = 1'-0"
140
0.0625
141
12.0
290
     0
  0
SCALE
  5
5D
102
{ACAD_REACTORS
330
47
102
}
330
47
100
AcDbScale
 70
     0
300
3/32" = 1'-0"
140
0.09375
141
12.0
290
     0
  0
SCALE
  5
5E
102
{ACAD_REACTORS
330
47
102
}
330
47
100
AcDbScale
 70
     0
300
1/8" = 1'-0"
140
0.125
141
12.0
290
     0
  0
SCALE
  5
5F
102
{ACAD_REACTORS
330
47
102
}
330
47
100
AcDbScale
 70
     0
300
3/16" = 1'-0"
140
0.1875
141
12.0
290
     0
  0
SCALE
  5
60
102
{ACAD_REACTORS
330
47
102
}
330
47
100
AcDbScale
 70
     0
300
1/4" = 1'-0"
140
0.25
141
12.0
290
     0
  0
SCALE
  5
61
102
{ACAD_REACTORS
330
47
102
}
330
47
100
AcDbScale
 70
     0
300
3/8" = 1'-0"
140
0.375
141
12.0
290
     0
  0
SCALE
  5
62
102
{ACAD_REACTORS
330
47
102
}
330
47
100
AcDbScale
 70
     0
300
1/2" = 1'-0"
140
0.5
141
12.0
290
     0
  0
SCALE
  5
63
102
{ACAD_REACTORS
330
47
102
}
330
47
100
AcDbScale
 70
     0
300
3/4" = 1'-0"
140
0.75
141
12.0
290
     0
  0
SCALE
  5
64
102
{ACAD_REACTORS
330
47
102
}
330
47
100
AcDbScale
 70
     0
300
1" = 1'-0"
140
1.0
141
12.0
290
     0
  0
SCALE
  5
65
102
{ACAD_REACTORS
330
47
102
}
330
47
100
AcDbScale
 70
     0
300
1-1/2" = 1'-0"
140
1.5
141
12.0
290
     0
  0
SCALE
  5
66
102
{ACAD_REACTORS
330
47
102
}
330
47
100
AcDbScale
 70
     0
300
3" = 1'-0"
140
3.0
141
12.0
290
     0
  0
SCALE
  5
67
102
{ACAD_REACTORS
330
47
102
}
330
47
100
AcDbScale
 70
     0
300
6" = 1'-0"
140
6.0
141
12.0
290
     0
  0
SCALE
  5
68
102
{ACAD_REACTORS
330
47
102
}
330
47
100
AcDbScale
 70
     0
300
1'-0" = 1'-0"
140
12.0
141
12.0
290
     0
  0
ENDSEC
  0
EOF
